Oops, an error
Loading. Please wait.
We have Chord Pro version of Umbrella.
It's the closest thing you can get to the original song and it has interactive parts. Check out the tab »
×
by Rihanna
214,997 views 27 this week
19 commentsread comments
1 2 3 4 5
x 37
add to favorites
×
Save as Personal and add changes to this tab that will be seen only by you. Learn more ›
×
You can save this tab as Personal to edit and correct it or add notes. All changes will be seen only by you. Learn more »
launch autoscroll
font size
0
reset
how to read this tab
guitar tuner
edit
Autoscroll
slow
fast
+/-
esc
set tempo
stop
Author
Difficulty
Rihanna - Umbrella
Tabbed by: Alejandro Manzano of Boyce Avenue

www.myspace.com/boyceavenue

video of me playing/singing it:
http://www.youtube.com/watch?v=5paQ9BwFAgI

Key of G

Tuning: C  G  D  G  D  D

x = mute
/ = slide

Chords:
 G or G    C or C    D or D    Em or Em    B    F
-0----0----2----0----0----0-----0----0-----0----0-|
-0----0----0----0----0----0-----0----0-----0----0-|
-4----0----0----0----0----9-----0---11-----0----0-|
-0---12----2----5----4----7-----5----9-----4----7-|
-0---12----0----5----2----7-----4----9-----4----5-|
-----------0---------2----------4---------------5-|

Intro:

-2---0---0------0------0---0-|
-0---0---0------0------0---0-|
-0---0---4------0------0---0-|
-2---2---0------4------5---4-|
-0---0---0------2------4---2-|
-0---0----------2------4---2-|

-2---0---0------0------0---0-|
-0---0---0------0------0---0-|
-0---0---4------0------0---0-|
-2---2---0------4------4---4-|
-0---0---0------2------4---2-|
-0---0----------2------4---2-|

Verse:

-0------0------0------0------0------0------0----------0-----0-|
-0------0------0------0------0------0------0----------0-----0-|
-0------0------0------0------0------0------0--------0-----0---|
-5-----12------4------9------5-----12------4------------------|
-5-----12------4------9------5-----12------4------4-----2-----|
--------------------------------------------------4-----2-----|
Chorus:

-2---0---0------0------0---0-|
-0---0---0------0------0---0-|
-0---0---4------0------0---0-|
-2---2---0------4------5---4-|
-0---0---0------2------4---2-|
-0---0----------2------4---2-|

-2---0---0------0------0---0-|
-0---0---0------0------0---0-|
-0---0---4------0------0---0-|
-2---2---0------4------4---4-|
-0---0---0------2------4---2-|
-0---0----------2------4---2-|

-0------0------0------0---0---0------0------0------0---0-|
-0------0------0------0---0---0------0------0------0---0-|
-0------0------0-----11---9---0------0------0-----11---9-|
-5-----12------4------9---7---5-----12------4------9---7-|
-5------0------4------9---7---5------0------4------9---7-|
---------------------------------------------------------|

Bridge:

-0------2------0------0----x-x-0------2------0------x-|
-0------0------0------0----x-x-0------0------0------x-|
-0------0------4------0----0-0-0------0------4------4-|
-7------2------0------4----4-5-7------2------0------4-|
-5------0------0------2----2-4-5------0------0------4-|
-5------0-------------2----2-4-5------0-------------x-|

Outro:

-2---0---0------0------0---0-|
-0---0---0------0------0---0-|
-0---0---4------0------0---0-|
-2---2---0------4------5---4-|
-0---0---0------2------4---2-|
-0---0----------2------4---2-|

-2---0---0------0------0---0-|
-0---0---0------0------0---0-|
-0---0---4------0------0---0-|
-2---2---0------4------4---4-|
-0---0---0------2------4---2-|
-0---0----------2------4---2-|

-----2----------0----------0----------0-----0-|
-----0----------0----------0----------0-----0-|
-----0----------4----------0----------0-----0-|
---2-2--------0-0--------4-4--------5-5---4-4-|
-0---0------0---0------2---4------4-----2-----|
-0---0-----------------2---2------4-----2-----|

-----2----------0----------0-------------0-----------|
-----0----------0----------0---------------------0---|
-----0----------4----------0-----------0-------0-----|
---2-2--------0-0--------4-4---------4-------4-------|
-0---0------0---0------2---4-----------------------0-|
-0---0-----------------2---2-----2/4-------2-------0-|

            
            
Suggest correction
Creating personal tab
Creating personal tab
You can edit any tab online and save it as your Personal.

You can edit, replace or remove any tab part or add personal notes – all changes will be seen only by you.

Personal tabs can be accessed anytime from any device, even offline.
Learn more »
comments
print report bad tab
19 comments total. Showing first comments.
+2 reply
vegashart 31 Sep 07, 2007 08:53 PM

you're awsome!

+2 reply
sonny1988 61 Sep 15, 2007 01:22 AM

just wonderful, thanks!

+2 reply
Snuffels 10 Oct 14, 2007 12:14 PM

awesome!!

guest
You may want to rate the tab now too:
select rating
Wanna post a correction for this tab? Suggest correction