Oops, an error
Loading. Please wait.

Let Me Be The One tab

version 2
version 2

Whole song

  • The original recording is in an impossibly high ke... Show more
52 views 3 this week
no commentswrite comment
1 2 3 4 5
3 more votes to show rating
add to favorites
×
Save as Personal and add changes to this tab that will be seen only by you. Learn more ›
×
You can save this tab as Personal to edit and correct it or add notes. All changes will be seen only by you. Learn more »
launch autoscroll
font size
0
reset
how to read this tab
guitar tuner
edit
Autoscroll
slow
fast
+/-
esc
set tempo
stop
Author
Difficulty
About this tab version
The original recording is in an impossibly high key. This version is in G. If you want to match the record, Capo 5. Was this info helpful? Yes No
[Intro]
(Guitar 1)
N.C              G               D/G                       C/G
   
(Guitar 2)
e|---8--7--5--3-|-3-------------|-----------2--h3--p2-----|-------------------|
B|--------------|---------------|----------------------3--|-------------------|
G|---9--7--5--4-|-4-------------|-------------------------|--4----------------|
D|--------------|---------------|-------------------------|------------5------|
A|--------------|---------------|-------------------------|-------------------|
E|--------------|---------------|-------------------------|-------------------|

[Verse]
         G                D/G               C                   Dsus4  D
Who will vow to have and hold you, love you more than words can say?
          Em7           Bm7             C                       Dsus4  D
Who will build their world around you and stand beside you all the way?
                C              D ( Em D/F# ) G    D/F#          Em
When you need a friend you can rely on, a shoulder you can cry on
                        C                       Dsus4             D
Who will pick you up when you fall, who'll come running when you call,
                Am            C               Dsus4  D
Who’ll be there for you when all is said and done?
               C                
Let Me Be The One…

                 G                 D/G              C   

[Guitar 2]
e|---8--7--5--3-|-3-------------|----------------2--h3--p2-----|-------------------|
B|--------------|---------------|---------------------------3--|-------------------|
G|---9--7--5--4-|-4-------------|------------------------------|--4----------------|
D|--------------|---------------|------------------------------|--------------5----|
A|--------------|---------------|------------------------------|-------------------|
E|--------------|---------------|------------------------------|-------------------|

[Verse]
         G                   D/G            C/G                 Dsus4  D
Who will help you to write the pages in the story of your life?
          Em7           Bm7             C               Dsus4  D
And who will promise you tomorrow every single time you kiss goodnight?
                C            Dsus4    D      G         D/F#             Em 
Who will love you always and forever, as you face this crazy world together?
                        C                              Dsus4      D
Who will make you smile through your tears, who’ll share all your secret fears?
            Am            C                   Dsus4  D
Who’ll wake up beside you when each mornin’ comes?
               C     
Let Me Be The One…

[Bridge]
                  G                   D/F#
Let Me Be The One your heart will know
        Em
The partner of your soul
        C
The one who laughs and cries with you
     F                  
The one who lives and dies for you
     G                 D/F#
The only one you need
        Em                              
To share your hopes and dreams, darlin’
F                           C    G/B
I can handle any fate that comes
    Am        G/B   C           Dsus4  D
If you would only Let Me Be The One…

[Outro]
(Guitar 1)
G                  D/G                      C/G         
                 
(Guitar 2)
e|---------------|------------2-h3-p2----|-------------------|--------8--7--5--3-|
B|---------------|---------------------3-|-------------------|-------------------|
G|---------------|-----------------------|--4----------------|--------9--7--5--4-|
D|---------------|-----------------------|---------5---------|-------------------|
A|---------------|-----------------------|-------------------|-------------------|
E|---------------|-----------------------|-------------------|-------------------|
                                                                   Let Me Be The

 G                       D/G                        C/G  
e|--3-------------------|--------2-h3-p2---|-8-----7---------|--------8--7--5--3-|
B|-----------------3--3-|----------------3-|---------8-/10---|-------------------|
G|--4--------4--h5------|------------------|---------------7-|-/9-----9--7--5--4-|
D|----------------------|------------------|-----------------|-------------------|
A|----------------------|------------------|-----------------|-------------------|
E|----------------------|------------------|-----------------|-------------------|
One…                                                              Let Me Be The 

  G               D/G                     C/G    
e|--3------------|------------2-h3-p2----|-------------------|--------8--7--5--3-|
B|---------------|---------------------3-|-------------------|-------------------|
G|--4------------|-----------------------|--4----------------|--------9--7--5--4-|
D|---------------|-----------------------|----------5--------|-------------------|
A|---------------|-----------------------|-------------------|-------------------|
E|---------------|-----------------------|-------------------|-------------------|
One…

  C/G                                   G     
e|--3------------|--------8--7--5--3-|--3----------------|
B|---------------|-------------------|-------------------|
G|--5------------|--------9--7--5--4-|--4----------------|
D|---------------|-------------------|-------------------|
A|---------------|-------------------|-------------------|
E|---------------|-------------------|-------------------|


************************************

| h  Hammer-on
| p  Pull-off
| /  Slide up

************************************

            
            
Suggest correction
Creating personal tab
Creating personal tab
You can edit any tab online and save it as your Personal.

You can edit, replace or remove any tab part or add personal notes – all changes will be seen only by you.

Personal tabs can be accessed anytime from any device, even offline.
Learn more »
Give kudos to tab author, rate the tab!
1 2 3 4 5
comments
print report bad tab
guest
You may want to rate the tab now too:
select rating
Wanna post a correction for this tab? Suggest correction