Oops, an error
Loading. Please wait.

The Execution Of All Things tab

version 1
version 1

Whole song

Interactive

10,946 views 3 this week
1 commentread comment
1 2 3 4 5
x 6
add to favorites
×
Save as Personal and add changes to this tab that will be seen only by you. Learn more ›
×
You can save this tab as Personal to edit and correct it or add notes. All changes will be seen only by you. Learn more »
launch autoscroll
font size
0
reset
how to read this tab
guitar tuner
edit
Autoscroll
slow
fast
+/-
esc
set tempo
stop
Author
Rilo Kiley : The Execution of All Things
Tabbed by:Philip Lee (philip2136@yahoo.com)

Intro: B C# A B
E F# A E

E             F#                  A
Soldiers come quickly, I feel the earth beneath my feet.
I'm feeling badly, it's not an attempt at decency.
And if you're well off, well then I'm happy some for you.
But I'd rather not celebrate my defeat and
      C#m   B         E
humiliation here with you.

Someone come quickly, this place was built for moving out.  Leave behind buildings, the 
planners got mapped out.  Bring with you history and make your hard earned feast.  Then 
go to Omaha, to work and exploit the
C#m     B     A             C       E
booming music scene and humility.

Bm A G F#7

Bm             A           G         F#7
And we've been talking all night....

(Instrumental over verse chords)

Solo:
-------------|-------------|-----------|---------|-------------------|-16-14----------|-16-14-12-11-12-|
-------------|-9-7---------|-9-7-------|-/-/-/-/-|-------------------|----------------|----------------|
-------------|-------------|-----9-8-9-|---------|-13-13-13-13-14-16-|-------13-14-16-|----------------|
-6-6-6-6-7-9-|-------6-7-9-|-----------|---------|-------------------|----------------|----------------|
-------------|-------------|-----------|---------|-------------------|----------------|----------------|
-------------|-------------|-----------|---------|-------------------|----------------|----------------|

Oh god come quickly, for the execution of all things.  Let's start with the bears and 
air and then mountains rivers and streams.  Then we'll murder what matters to you and move 
to your neighbors and kids.  Crush all hopes of happiness with disease cause of what you did.

-4-4-4--4--4--6-6-6--6--6--9-9-9--9--9--4~-|
-5-5-5--5--5--7-7-7--7--7--101010-10-10-5~-|
-4-4-4--4--4--6-6-6--6--6--9-9-9--9--9--4~-|
-------------------------------------------|
-------------------------------------------|
-------------------------------------------|
And lastly, you're all alone with nothing left but sleep.  But sleep never comes to you, 
just the guilt and forever

C#m    B           A                C
wakefulness of the weak.  It's just you and me....
The execution of all things.

Outro: C B E

            
            
Suggest correction
Creating personal tab
Creating personal tab
You can edit any tab online and save it as your Personal.

You can edit, replace or remove any tab part or add personal notes – all changes will be seen only by you.

Personal tabs can be accessed anytime from any device, even offline.
Learn more »
comments
print report bad tab
1 comment total.
0 reply
shasta92 114 Feb 27, 2009 04:20 PM

This tab is perfect ! thanks
did you tab anyother from Rilo Kiley please DO IT !!!ur rock

guest
You may want to rate the tab now too:
select rating
Wanna post a correction for this tab? Suggest correction