Oops, an error
Loading. Please wait.

Photograph bass

version 1
version 1

Whole song

Interactive

3,525 views 6 this week
1 commentread comment
1 2 3 4 5
1 last vote to show rating
add to favorites
×
Save as Personal and add changes to this tab that will be seen only by you. Learn more ›
×
You can save this tab as Personal to edit and correct it or add notes. All changes will be seen only by you. Learn more »
launch autoscroll
font size
0
reset
guitar tuner
edit
Autoscroll
slow
fast
+/-
esc
set tempo
stop
Author
PHOTOGRAPH

Written by George Harrison & Ringo Starr

INTRO

G|---------------------------------|---------------------------------|
D|---------------------------------|---------------------------------|
A|---------------------------------|-----------------------------2-2-|
E|---------------------------------|---------------------------------|

G|---------------------------------|---------------------------------|
D|---------------------------------|---------------------------------|
A|-2-------------------------------|-----------------------------2-2-|
E|---------------------------------|---------------------------------|

G|---------------------------------|---------------------------------|
D|---------------------------------|---------------------------------|
A|-2-------------------------------|---------------------------------|
E|---------------------------------|---------------------------------|

VERSE

G|---------------------------------|---------------------------------|
D|-2-------------------------------|---------------------------------|
A|-----------------4-------2-------|---------------------------------|
E|---------------------------------|-0-------2-------4-------5-------|

G|---------------------------------|---------------------------------|
D|---------------------------------|-------------4---6-------7-------|
A|-0-----------2---4-------6-------|-7-------------------------------|
E|---------------------------------|---------------------------------|

G|---------------------------------|---------------------------------|
D|---------------------------------|---------------------------------|
A|-2-----------2---2-----------2---|-2-----------2---4-------6-------|
E|---------------------------------|---------------------------------|

G|---------------------------------|---------------------------------|
D|-2-------------------------------|---------------------------------|
A|-----------------4-------2-------|---------------------------------|
E|---------------------------------|-0-------2-------4-------5-------|

G|---------------------------------|---------------------------------|
D|---------------------------------|-------------4---6-------7-------|
A|-0-----------2---4-------6-------|-7-------------------------------|
E|---------------------------------|---------------------------------|

G|---------------------------------|---------------------------------|
D|---------------------------------|---------------------------------|
A|-2-----------2---2-----------2---|-2-----------2---2-------1-------|
E|---------------------------------|-----------------------------5---|

BRIDGE

G|---------------------------------|---------------------------------|
D|---------------------------------|---------------------------------|
A|---------------------------------|---------------------------------|
E|-4-----------4---4-----------4---|-4-----------4---4-----------4---|

G|---------------------------------|---------------------------------|
D|---------------------------------|---------------------------------|
A|-4-----------4---4-----------4---|-4-----------4---4---------------|
E|---------------------------------|-------------------------2---0---|

G|---------------------------------|---------------------------------|
D|---------------------------------|---------------------------------|
A|---------------------------------|---------------------------------|
E|-4-----------4---4-----------4---|-4-----------4---4-----------4---|

G|---------------------------------|---------------------------------|
D|---------------------------------|---------------------------------|
A|-4-----------4---4-----------4---|-2-----------2---2-----------2---|
E|---------------------------------|---------------------------------|

G|---------------------------------|
D|---------------------------------|
A|-2-----------2---4-------6-------|
E|---------------------------------|

VERSE

G|---------------------------------|---------------------------------|
D|-2-------------------------------|---------------------------------|
A|-----------------4-------2-------|---------------------------------|
E|---------------------------------|-0-------2-------4-------5-------|

G|---------------------------------|---------------------------------|
D|---------------------------------|-2-------------------------------|
A|-0---------------2-------4-------|-----------------6-------4-------|
E|---------------------------------|---------------------------------|

G|---------------------------------|---------------------------------|
D|---------------------------------|---------------------------------|
A|-2-----------2---2-----------2---|-2-----------2---4-------6-------|
E|---------------------------------|---------------------------------|

G|---------------------------------|---------------------------------|
D|-2-------------------------------|---------------------------------|
A|-----------------4-------2-------|---------------------------------|
E|---------------------------------|-0-------2-------4-------5-------|

G|---------------------------------|---------------------------------|
D|---------------------------------|-2-------------------------------|
A|-0---------------2-------4-------|-----------------6-------4-------|
E|---------------------------------|---------------------------------|

G|---------------------------------|---------------------------------|
D|---------------------------------|---------------------------------|
A|-2-----------2---2-----------2---|-2-----------2---2-------4-------|
E|---------------------------------|---------------------------------|

SOLO

G|---------------------------------|---------------------------------|
D|---------------------------------|---------------------------------|
A|---------------------------------|---------------------------------|
E|-0-----------0---0-----------0---|-0-----------0---0-----------0---|

G|---------------------------------|---------------------------------|
D|---------------------------------|---------------------------------|
A|-0-----------0---0-----------0---|-0-----------0---0-----------0---|
E|---------------------------------|---------------------------------|

G|---------------------------------|---------------------------------|
D|---------------------------------|---------------------------------|
A|-2-----------2---2-----------2---|-2-----------2---2---------------|
E|---------------------------------|-------------------------2-------|

G|---------------------------------|---------------------------------|
D|---------------------------------|---------------------------------|
A|---------------------------------|---------------------------------|
E|-0-----------0---0---0-------0---|-0-----------0---0-----------0---|

G|---------------------------------|---------------------------------|
D|---------------------------------|---------------------------------|
A|-0-----------0---0-----------0---|-0-----------0---0-----------0---|
E|---------------------------------|---------------------------------|

G|---------------------------------|---------------------------------|
D|---------------------------------|---------------------------------|
A|-2-----------2---2-----------2---|-2-----------2-------4-----------|
E|---------------------------------|-------------------------6---5---|

BRIDGE

G|---------------------------------|---------------------------------|
D|---------------------------------|---------------------------------|
A|---------------------------------|---------------------------------|
E|-4-----------4---4-----------4---|-4-----------4---4-----------4---|

G|---------------------------------|---------------------------------|
D|---------------------------------|---------------------------------|
A|-4-----------4---4-----------4---|-4-----------4---4---------------|
E|---------------------------------|-------------------------2---0---|

G|---------------------------------|---------------------------------|
D|---------------------------------|---------------------------------|
A|---------------------------------|---------------------------------|
E|-4-----------4---4-----------4---|-4-----------4---4-----------4---|

G|---------------------------------|---------------------------------|
D|---------------------------------|---------------------------------|
A|-4-----------4---4-----------4---|-2-----------2---2-----------2---|
E|---------------------------------|---------------------------------|

G|---------------------------------|
D|---------------------------------|
A|-2-----------2---4-------6-------|
E|---------------------------------|

VERSE

G|---------------------------------|---------------------------------|
D|-2-------------------------------|---------------------------------|
A|-----------------4-------2-------|---------------------------------|
E|---------------------------------|-0-------2-------4-------5-------|

G|---------------------------------|---------------------------------|
D|---------------------------------|-2-------------------------------|
A|-0---------------2-------4-------|-----------------6-------4-------|
E|---------------------------------|---------------------------------|

G|---------------------------------|---------------------------------|
D|---------------------------------|---------------------------------|
A|-2-----------2---2-----------2---|-2-----------2---4-------6-------|
E|---------------------------------|---------------------------------|

G|---------------------------------|---------------------------------|
D|-2-------1-----------------------|---------------------------------|
A|-----------------4-------2-------|---------------------------------|
E|---------------------------------|-0-------2-------4-------5-------|

G|---------------------------------|---------------------------------|
D|---------------------------------|-2-------------------------------|
A|-0---------------2-------4-------|-----------------6-------4-------|
E|---------------------------------|---------------------------------|

INTERLUDE

G|---------------------------------|---------------------------------|
D|---------------------------------|---------------------------------|
A|-2-------------------------------|-----------------------------2-2-|
E|---------------------------------|---------------------------------|

G|---------------------------------|---------------------------------|
D|---------------------------------|---------------------------------|
A|-2-------------------------------|-----------------------------2-2-|
E|---------------------------------|---------------------------------|

G|---------------------------------|---------------------------------|
D|---------------------------------|---------------------------------|
A|-2-------------------------------|---------------------------------|
E|---------------------------------|---------------------------------|

OUTRO

G|---------------------------------|---------------------------------|
D|---------------------------------|---------------------------------|
A|---------------------------------|---------------------------------|
E|-0-----------0---0-----------0---|-0-----------0---0-----------0---|

G|---------------------------------|---------------------------------|
D|---------------------------------|---------------------------------|
A|-0-----------0---0-----------0---|---------------------------------|
E|---------------------------------|-0-----------0---0-----------0---|

G|---------------------------------|---------------------------------|
D|---------------------------------|---------------------------------|
A|-2-----------2---2-----------2---|-2-----------2---4-------6-------|
E|---------------------------------|---------------------------------|

G|---------------------------------|---------------------------------|
D|-2-------1-----------------------|---------------------------------|
A|-----------------4-------2-------|---------------------------------|
E|---------------------------------|-0-------2-------4-------5-------|

G|---------------------------------|---------------------------------|
D|---------------------------------|-2-------------------------------|
A|-0---------------2-------4-------|-----------------6-------4-------|
E|---------------------------------|---------------------------------|

G|---------------------------------|---------------------------------|
D|---------------------------------|---------------------------------|
A|-2-----------2---2-----------2---|-2-----------2---4-------6-------|
E|---------------------------------|---------------------------------|

G||---------------------------------|---------------------------------|
D||---------------------------------|---------------------------------|
A||---------------------------------|---------------------------------|
E||-0-----------0---0---0-------0---|-0---0-------0---0---0-------0---|

G|---------------------------------|---------------------------------|
D|---------------------------------|-2---2-------2---2---2-------2---|
A|-0---0-------0---0---0-------0---|---------------------------------|
E|---------------------------------|---------------------------------|

G|---------------------------------|---------------------------------|
D|---------------------------------|---------------------------------|
A|-2---2-------2---2-----------2---|-2-----------2---4-------6-------|
E|---------------------------------|---------------------------------|

G|---------------------------------|---------------------------------|
D|-2-------1-----------------------|---------------------------------|
A|-----------------4-------2-------|---------------------------------|
E|---------------------------------|-0-------2-------4-------5-------|

G|---------------------------------|---------------------------------|
D|---------------------------------|-2-------------------------------|
A|-0---------------2-------4-------|-----------------6-------4-------|
E|---------------------------------|---------------------------------|

G|---------------------------------|---------------------------------||
D|---------------------------------|---------------------------------||
A|-2-----------2---2-----------2---|-2-----------2---4-------6-------||
E|---------------------------------|---------------------------------||
                                                  REPEAT AND FADE OUT

            
            
Suggest correction
Creating personal tab
Creating personal tab
You can edit any tab online and save it as your Personal.

You can edit, replace or remove any tab part or add personal notes – all changes will be seen only by you.

Personal tabs can be accessed anytime from any device, even offline.
Learn more »
Give kudos to tab author, rate the tab!
1 2 3 4 5
comments
print report bad tab
1 comment total.
0 reply
SoftParade1967 522 Sep 19, 2008 03:01 PM

awesome! I've been waiting for someone to do this song. 5*

guest
You may want to rate the tab now too:
select rating
Wanna post a correction for this tab? Suggest correction