Oops, an error
Loading. Please wait.

Carol Quiere Un Viaje A Londres tab

by Rio
84 views 1 this week
1 commentread comment
1 2 3 4 5
2 more votes to show rating
add to favorites
×
Save as Personal and add changes to this tab that will be seen only by you. Learn more ›
×
You can save this tab as Personal to edit and correct it or add notes. All changes will be seen only by you. Learn more »
launch autoscroll
font size
0
reset
how to read this tab
guitar tuner
edit
Autoscroll
slow
fast
+/-
esc
set tempo
stop
aqui hay dos guitarras, ahora si quieres la haces solo

CAROL QUIERE UN VIAJE A LONDRES


INTRO: E  - Am - D 


    E                  Am             D 
E-----------------------------------------------------------|
B----5..--3------------5..--3----------5--3--5--3-----------| tocar solo estas
G----2..--2------------2..--2----------2--2--2--2-----------| estas cuerdas
D-----------------------------------------------------------|
A-----------------------------------------------------------|
E-----------------------------------------------------------|


E    Am      D 
     UH  UH  UH     4vcs

1 caro quiere un viaje a londres y su mami se lo va a pagar
  caro quiere un auto nuevo y su papi se lo va a comprar


   G      D       A     C      E    E 
E---3------2------5------3------0---------------------------|
B---3------3------5------5------0----3..---5..--3---5-------|
G---4------2------6------5------1----2..---2..--2---2-------|
D---5------4------7------5------2---------------------------|
A---5------2------7------3------2---------------------------|
E---3------2------5------3------0---------------------------|


2 nadie puede negar que el dinero en el mundo
  puede comprar lo que pueden soñar
  deben amar sin embargo prefieren gastar


3  caro tiene mil problemas y su mami no la va a escuchar
  caro quiere hablar con ella su sicologo la escuchara

2 nadie puede negar que el dinero en el mundo
  puede comprar lo que pueden soñar
  deben amar sin embargo prefieren gastar


          A          D          E 
E---------------------2..--------4..--5..--4..--------------|
B----------2..--------3..--------5..--5..--5..--------------|
G----------2..--------2..--------4..--4..--4..--------------|
D----------2..----------------------------------------------|
A-----------------------------------------------------------|
E-----------------------------------------------------------|

4 y para que tener dinero y no poder tener amor
  nunca sabran cuantos amigos son amigos de verdad

  hay tanta gente equivocada en el
  mundo que con dinero no pueden tener amor


REPETIR:  1,2,4
PUNTEO

       E             Am           D 
E------------------------------------|
B------------------------7+8--8-8-7--|
G-----7+9--7-9-7-9---7-9-------------|
D---9--------------9-----------------|
A------------------------------------|
E------------------------------------|


         E                          Am       D 
E-----10+12--12-12-10-12-10--12-------------12-10-----------|
B--12--------------------------12----9-9-8-7------12-10--7--|
G-----------------------------------------------------------|
D-----------------------------------------------------------|
A-----------------------------------------------------------|
E-----------------------------------------------------------|


REPETIR:  2,4

      E                               Am      D 
FIN:  caro quiere un viaje a londres  UH  UH  UH    4vcs

            
            
Suggest correction
Creating personal tab
Creating personal tab
You can edit any tab online and save it as your Personal.

You can edit, replace or remove any tab part or add personal notes – all changes will be seen only by you.

Personal tabs can be accessed anytime from any device, even offline.
Learn more »
Give kudos to tab author, rate the tab!
1 2 3 4 5
comments
print report bad tab
1 comment total.
0 reply
christianraulmancoherrera 10 Jan 10, 2016 01:32 AM

The intro isn't the correct
asfsv sdfas asdf asdf asd f asdf asd fas df asdf asdf *Sorry for that bur this programe ask me for 15 words... so... asdasdf sdf asdf asdf asdf

guest
Wanna post a correction for this tab? Suggest correction