Oops, an error
Loading. Please wait.

La Universidad tab

by Rio
136 views 3 this week
no commentswrite comment
1 2 3 4 5
3 more votes to show rating
add to favorites
×
Save as Personal and add changes to this tab that will be seen only by you. Learn more ›
×
You can save this tab as Personal to edit and correct it or add notes. All changes will be seen only by you. Learn more »
launch autoscroll
font size
0
reset
how to read this tab
guitar tuner
edit
Autoscroll
slow
fast
+/-
esc
set tempo
stop
Transcrito por: Julio cesar velasquez vara (juliokorn57@
Procedencia: lima - Peru
banda:rio

                    LA UNIVERSIDAD


YA SABES, SI ESTA VEZ NO INGRESAS...


riff1:
este arpegio se repite varias veces en la cancion
intro:                                       [X2] =dos veces
|------------5-5p4---------4-4------------------
|------------5-5-5---------5-5------------------
|---7-7p6---------------------------------------
|---7-7-7-----------4-4p2-----------------------
|-------------------4-4-------------------------
|-----------------------------------------------


ESTAR EN LA UNIVERSIDAD ES UNA COSA DE LOCOS

|----------------------------4--4----------------
|---2--2--2------------------5--5----------------
|---2--2--2------------------6--6----------------
|---2--2--2-------4--4---4-----------------------
|-----------------4--4---4-----------------------
|-----------------2--2---2-----------------------


ESTAR EN LA UNIVERSIDAD ES UNA FIESTAS DE MONOS

|-------------------------------------------------------
|---2--2--2--2--2--2--2--2------------------------------
|---2--2--2--2--2--2--2--2----------------------4-----2-
|---2--2--2--2--2--2--2--2--------------------------4---
|-------------------------------------------------------
|-------------------------------------------------------

DOCE AÑOS EN LA MEDICINA, TERMINAR LIMPIANDO UNA OFICINA

|-------------------2-0-2-0----------------------
|-------0---0-3-2-3------------------------------
|---------2--------------------------------------
|------------------------------------------------
|------------------------------------------------
|------------------------------------------------


ESTAR EN LA UNIVERSIDAD ES UNA COSA DE LOCOS
|----------------------------4--4-----------
|---2--2--2------------------5--5-----------
|---2--2--2------------------6--6-----------
|---2--2--2-------4--4---4------------------
|-----------------4--4---4------------------
|-----------------2--2---2------------------


ESTAR EN LA UNIVERSIDAD ES UNA FIESTAS DE MONOS
|---------------------------------------------------------
|---2--2--2--2--2--2--2--2--------------------------------
|---2--2--2--2--2--2--2--2----------------------4-----2---
|---2--2--2--2--2--2--2--2--------------------------4-----
|---------------------------------------------------------
|---------------------------------------------------------

DERECHO Y ARQUITECTURA, TERMINA SIENDO UNA LOCURA

|-------------------2-0-2-0----------------------
|-------0---0-3-2-3------------------------------
|---------2--------------------------------------
|------------------------------------------------
|------------------------------------------------
|------------------------------------------------


CORO:
NO LOGRAS ENCONTRAR TRABAJO

|--------------------------------------
|--------------------------------------
|----4--2-----4----2-------------------
|----------------4---------------------
|--------------------------------------
|--------------------------------------


SIRVE MUY POCO SER PROFESIONAL

LAS COSAS ME HAN SALIDO MAL

ME RAYA ESTA UNIVERSIDAD

OH OH OH OH OH OH   ...COSA DE LOCOS
|------------5-5p4----------------------------
|------------5-5-5----------------------------
|---7-7p6-------------4-4p2-------------------
|---7-7-7-------------4-4-4-------------------
|---------------------------------------------
|---------------------------------------------


CON TANTO ESFUERZO INGRESASTE

OH OH OH OH OH OH ... COSA DE LOCOS
|------------5-5p4---------------------------
|------------5-5-5---------------------------
|---7-7p6-------------4-4p2------------------
|---7-7-7-------------4-4-4------------------
|--------------------------------------------
|--------------------------------------------


Y AHORA YA TE REVENTASTE


(luego se repite el intro los riff y todo lo demas)

ESTAR EN LA UNIVERSIDAD ES UNA COSA DE LOCOS

ESTAR EN LA UNIVERSIDAD ES UNA FIESTAS DE MONOS

NO ENTIENDES LO QUE ESTAS HACIENDO, LAS CHICAS SI QUE QUITAN TIEMPO

ESTAR EN LA UNIVERSIDAD ES UNA COSA DE LOCOS

ESTAR EN LA UNIVERSIDAD ES UNA FIESTAS DE MONOS

LOS LIOS CON LO POLICIAS, SON COMO EL PAN DE CADA DIA

rep .coro


|----------------------------------
|----------------------------------
|----------------------------------
|--2-4-222-4-22--------------------
|----------------------------------
|----------------------------------


COSA DE LOCOS
|----------------------------------
|--------------4-----2-------------
|-----------------4----------------
|----------------------------------
|----------------------------------
|----------------------------------


EXAMENES LLENOS DE TRUCOS, LAS CHELAS CHICLES Y LOS PUCHOS
|----------------------------2--0--2--0-------
|---------0------0--3--2--3-------------------
|-------------2-------------------------------
|---------------------------------------------
|---------------------------------------------
|---------------------------------------------


|---------------------------------------------
|---------------------------------------------
|---------------------------------------------
|--2-4-222-4-22-------------------------------
|---------------------------------------------
|---------------------------------------------


COSA DE LOCOS
|--------------------------------------------
|--------------4-----2-----------------------
|-----------------4--------------------------
|--------------------------------------------
|--------------------------------------------
|--------------------------------------------


INGRESAS LUEGO DEL COLEGIO, LAS HUELGAS SI QUE TE HACEN VIEJO
|----------------------------2--0--2--0-----
|---------0------0--3--2--3-----------------
|-------------2-----------------------------
|-------------------------------------------
|-------------------------------------------
|-------------------------------------------


ESTANDO EN LA UNIVERSIDAD...


OH OH OH OH OH OH...   COSA DE LOCOS                             [x6]
|------------5-5p4--------------------------
|------------5-5-5--------------------------
|---7-7p6-------------4-4p2-----------------
|---7-7-7-------------4-4-4-----------------
|-------------------------------------------
|-------------------------------------------


para los fanaticos del rock en español
cualquier duda o sugerencia escribir al correo
un saludo al grupo I.N.R.I en su tercera generacion
alex jefry daigoro ochoa y quien escribe
y otro A MI enamorada neli  en cuzco
espero que regreses pronto pex

            
            
Suggest correction
Creating personal tab
Creating personal tab
You can edit any tab online and save it as your Personal.

You can edit, replace or remove any tab part or add personal notes – all changes will be seen only by you.

Personal tabs can be accessed anytime from any device, even offline.
Learn more »
Give kudos to tab author, rate the tab!
1 2 3 4 5
comments
print report bad tab
guest
Wanna post a correction for this tab? Suggest correction