Oops, an error
Loading. Please wait.

Antimilitar bass

by RIP
118 views 1 this week
no commentswrite comment
1 2 3 4 5
3 more votes to show rating
add to favorites
×
Save as Personal and add changes to this tab that will be seen only by you. Learn more ›
×
You can save this tab as Personal to edit and correct it or add notes. All changes will be seen only by you. Learn more »
launch autoscroll
font size
0
reset
guitar tuner
edit
Autoscroll
slow
fast
+/-
esc
set tempo
stop
Izquierda,   izquierda,     izquierda, derecha, izquierda,
   izquierda,   izquierda,    ¡izquierda, derecha, izquierda!
1|----------------------------------------------------------------
2|----------------------------------------------------------------
3|-5-5-5-5--3--2--5-5-5-5--3--2--5-5-5-5--3--2--5-5-5-5--3--2-----
4|----------------------------------------------------------------


1|----------------------------------------------------------------
2|----------------------------------------------------------------
3|-5-5-5-5--3--2--5-5-5-5--3--2--5-5-5-5--3--2--5-5-5-5--3--2-----
4|----------------------------------------------------------------
  Voy en escuadrón, lucho para el rey, soy patriota.

1|----------------------------------------------------------------
2|----------------------------------------------------------------
3|-5-5-5-5--2--3--5-5-5-5--2--3--5-5-5-5--2--3--5-5-5-5--2--3-----
4|----------------------------------------------------------------
Mili, por el culo mili, por el culo mili, por le culo les vamos a dar.

1|----------------------------------------------------------------
2|----------------------------------------------------------------
3|-5-5-5-5--3--2--5-5-5-5--3--2--5-5-5-5--3--2--5-5-5-5--3--2-----
4|----------------------------------------------------------------


1|----------------------------------------------------------------
2|----------------------------------------------------------------
3|-5-5-5-5--3--2--5-5-5-5--3--2--5-5-5-5--3--2--5-5-5-5--3--2-----
4|----------------------------------------------------------------
  Yo soy uno más y a mi general le quiero currar.

1|----------------------------------------------------------------
2|----------------------------------------------------------------
3|-5-5-5-5--2--3--5-5-5-5--2--3--5-5-5-5--2--3--5-5-5-5--2--3-----
4|----------------------------------------------------------------
Mili, por el culo mili, por el culo mili, por le culo les vamos a dar.

1|----------------------------------------------------------------
2|----------------------------------------------------------------
3|-5-5-5-5--3--2--5-5-5-5--3--2--5-5-5-5--3--2--5-5-5-5--3--2-----
4|----------------------------------------------------------------


1|----------------------------------------------------------------
2|----------------------------------------------------------------
3|-5-5-5-5-5/2--5-5-5-5-5/2--5-5-5-5-5/2--5-5-5-5-5/2-------------
4|----------------------------------------------------------------


1|----------------------------------------------------------------
2|----------------------------------------------------------------
3|-5-5-5-5--3--2--5-5-5-5--3--2--5-5-5-5--3--2--5-5-5-5--3--2-----
4|----------------------------------------------------------------


1|----------------------------------------------------------------
2|----------------------------------------------------------------
3|-5-5-5-5--3--2--5-5-5-5--3--2--5-5-5-5--3--2--5-5-5-5--3--2-----
4|----------------------------------------------------------------
  Anti-militar,  anti-militar,  anti-militar,  anti-militar,

1|----------------------------------------------------------------
2|----------------------------------------------------------------
3|-5-5-5-5--3--2--5-5-5-5--3--2--5-5-5-5--3--2--5-5-5-5--3--2-----
4|----------------------------------------------------------------
  Anti-militar,  anti-militar,  anti-militar,  anti-militar,

1|----------------------------------------------------------------
2|----------------------------------------------------------------
3|-5-5-5-5--3--2--5-5-5-5--3--2--5-5-5-5--3--2--5-5-5-5--3--2-----
4|----------------------------------------------------------------
 ¡Anti-militar,  anti-militar,  anti-militaaaaaaaaaaaar! ¡Aaahhhh!


Bueno pues esto es todo. Si sabes tocarla de otra forma que suene
mejor o tienes alguna canción de este grupo que no salga en esta
página por favor envíamela:   jfj1391@

            
            
Suggest correction
Creating personal tab
Creating personal tab
You can edit any tab online and save it as your Personal.

You can edit, replace or remove any tab part or add personal notes – all changes will be seen only by you.

Personal tabs can be accessed anytime from any device, even offline.
Learn more »
Give kudos to tab author, rate the tab!
1 2 3 4 5
comments
print report bad tab
guest
Wanna post a correction for this tab? Suggest correction