Oops, an error
Loading. Please wait.
We have an official Anywhere But Here tab made by UG professional guitarists. Check out the tab »
×
145 views 1 this week
no commentswrite comment
1 2 3 4 5
3 more votes to show rating
add to favorites
×
Save as Personal and add changes to this tab that will be seen only by you. Learn more ›
×
You can save this tab as Personal to edit and correct it or add notes. All changes will be seen only by you. Learn more »
launch autoscroll
font size
0
reset
how to read this tab
guitar tuner
edit
Autoscroll
slow
fast
+/-
esc
set tempo
stop
-------------------------------------------------------------------------------
                             SONG NAME - Band Name
-------------------------------------------------------------------------------
Tabbed by: Demian 
E-mail:maybeshewillz@mail.ru

Tuning: Half-Step Down

If you want to play this song in such a way that sound like two guitars, but you are alone,
this intro will help you. The main thing - to correctly understand strumming pattern.

Intro:

eb|---------------------------------------------------------------------------|(x3)
Bb|-0-0-00---------0-0-00-4-4-44----------------------------------------------|
Gb|-1-1-11---------2-2-22-2-2-22----------------------------------------------|
Db|-2-2-22-4-4-44--2-2-22-2-2-22----------------------------------------------|
Ab|-2-2-22-2-2-22--0-0-00-0-0-00----------------------------------------------|
Eb|--------0-0-00-------------------------------------------------------------|

eb|---------------------------------------------------------------------------|
Bb|---------------------------------------------------------------------------|
Gb|-4-4-4-4-4/9-9-7-7-5-5-5---------------------------------------------------|
Db|-4-4-4-4-4/9-9-7-7-5-5-5---------------------------------------------------|
Ab|-2-2-2-2-2/7-7-5-5-3-3-3---------------------------------------------------|
Eb|---------------------------------------------------------------------------|

Verse: 

eb|---------------------------------------------------------------------------|
Bb|---------------------------------------------------------------------------|
Gb|--6-------9----------------------------------------------------------------|
Db|--6---7---9---9------------------------------------------------------------|
Ab|--4---7---7---9------------------------------------------------------------|
Eb|------5-------7------------------------------------------------------------|

Brigde:

Destination anywhere but here...

eb|---------------------------------------------------------------------------|
Bb|---------------------------------------------------------------------------|
Gb|---------------------------------------------------------------------------|
Db|-4-4-4-4-4-4-4-4(x)-2(x)----(x - palm mute)--------------------------------|
Ab|-4-4-4-4-4-4-4-4(x)-2(x)---------------------------------------------------|
Eb|-2-2-2-2-2-2-2-2(x)-0(x)---------------------------------------------------|

Chorus:

eb|---------------------------------------------------------------------------|(x3)
Bb|-0-0-00---------0-0-00-4-4-44----------------------------------------------|
Gb|-1-1-11---------2-2-22-2-2-22----------------------------------------------|
Db|-2-2-22-4-4-44--2-2-22-2-2-22----------------------------------------------|
Ab|-2-2-22-2-2-22--0-0-00-0-0-00----------------------------------------------|
Eb|--------0-0-00-------------------------------------------------------------|

eb|---------------------------------------------------------------------------|
Bb|---------------------------------------------------------------------------|
Gb|-4-4-4-4-4-----------------------------------------------------------------|
Db|-4-4-4-4-4-----------------------------------------------------------------|
Ab|-2-2-2-2-2-----------------------------------------------------------------|
Eb|---------------------------------------------------------------------------|

Brigde:

I'm so tired and turned around
And scared...

eb|---------------------------------------------------------------------------|
Bb|---------------------------------------------------------------------------|
Gb|--6-----------4-------(just single notes)----------------------------------|
Db|--6---7---2---4------------------------------------------------------------|
Ab|--4---7---2---2------------------------------------------------------------|
Eb|------5---0----------------------------------------------------------------|

and then chorus again.

Tab for two guitars (like on the video - https://www.youtube.com/watch?v=urcESNv23Eo)

Intro and chorus the same:
guitar one

eb|----------------------------------------------------------------------------|(x3)
Bb|-0-0-00-0-0-00---0-0-00-0-0-00----------------------------------------------|
Gb|-1-1-11-1-1-11---2-2-22-2-2-22----------------------------------------------|
Db|-2-2-22-2-2-22---2-2-22-2-2-22----------------------------------------------|
Ab|-2-2-22-2-2-22---0-0-00-0-0-00----------------------------------------------|
Eb|----------------------------------------------------------------------------|

eb|---------------------------------------------------------------------------|
Bb|---------------------------------------------------------------------------|
Gb|-4-4-4-4-4-----------------------------------------------------------------|
Db|-4-4-4-4-4-----------------------------------------------------------------|
Ab|-2-2-2-2-2-----------------------------------------------------------------|
Eb|---------------------------------------------------------------------------|

Intro and chorus the same
guitar two:

eb|---------------------------------------------------------------------------|(x3)
Bb|---------------------------------------------------------------------------|
Gb|--13-13-1313--11/13-1313--9-9-99--8-8-88-----------------------------------|
Db|--x--x--x-x---x-/x--x-x---7-7-77--7-7-77-----------------------------------|
Ab|--11-11-1111--9-/11-1111--7-7-77--7-7-77-----------------------------------|
Eb|--0--0--0-0---0-/0--0-0----------------------------------------------------|


eb|---------------------------------------------------------------------------|
Bb|---------------------------------------------------------------------------|
Gb|---------------14-14-13/-14/-13--11--9-------------------------------------|
Db|--9-9-9-9-9-9--x--x--x-/-x-/-x---x---x-------------------------------------|
Ab|--9-9-9-9-9-9--12-12-11/-12/-11--9---7-------------------------------------|
Eb|--7-7-7-7-7-7--0--0--0-/-0-/-0---0---0-------------------------------------|

Verse: 

eb|---------------------------------------------------------------------------|
Bb|---------------------------------------------------------------------------|
Gb|--6-------9----------------------------------------------------------------|
Db|--6---7---9---9------------------------------------------------------------|
Ab|--4---7---7---9------------------------------------------------------------|
Eb|------5-------7------------------------------------------------------------|

Brigde:

Destination anywhere but here...

eb|---------------------------------------------------------------------------|
Bb|---------------------------------------------------------------------------|
Gb|---------------------------------------------------------------------------|
Db|-4-4-4-4-4-4-4-4(x)-2(x)----(x - palm mute)--------------------------------|
Ab|-4-4-4-4-4-4-4-4(x)-2(x)---------------------------------------------------|
Eb|-2-2-2-2-2-2-2-2(x)-0(x)---------------------------------------------------|

Little part in the end:

eb|---------------------------------------------------------------------------|
Bb|--0-4-5-0-4-5-0-5-(x3)-----------------------------------------------------|
Gb|---------------------------------------------------------------------------|
Db|---------------------------------------------------------------------------|
Ab|---------------------------------------------------------------------------|
Eb|---------------------------------------------------------------------------|

eb|---------------------------------------------------------------------------|
Bb|--0-4-5-0-4-5-0------------------------------------------------------------|
Gb|---------------------------------------------------------------------------|
Db|---------------------------------------------------------------------------|
Ab|---------------------------------------------------------------------------|
Eb|---------------------------------------------------------------------------|




************************************

| /   slide up
| \   slide down
| h   hammer-on
| p   pull-off
| ~   vibrato
| +   harmonic
| x   Mute note
| b   Bend
| pb  Pre-bend
| br  Bend release
| pbr Pre-bend release
| brb Bend release bend

************************************

            
            
Suggest correction
Creating personal tab
Creating personal tab
You can edit any tab online and save it as your Personal.

You can edit, replace or remove any tab part or add personal notes – all changes will be seen only by you.

Personal tabs can be accessed anytime from any device, even offline.
Learn more »
Give kudos to tab author, rate the tab!
1 2 3 4 5
comments
print report bad tab
guest
You may want to rate the tab now too:
select rating
Wanna post a correction for this tab? Suggest correction