Oops, an error
Loading. Please wait.
We have an official Behind Closed Doors tab made by UG professional guitarists. Check out the tab »
×
43,829 views 3 this week
6 commentsread comments
1 2 3 4 5
x 12
add to favorites
guitar tuner
Autoscroll
slow
fast
+/-
esc
set tempo
stop
"Behind Closed Doors"
demo version
Play now

or get full version for Free

×
Get full version now!
Learn and play this song
in Tab Pro
Try for free

or get $10 off Welcome Bonus

Get welcome bonus
Get access to Tab Pro version of “Behind Closed Doors”!
Tab Pro is a premium guitar tab service, available on PC, Mac, iOS and Android
TRY FOR FREE
To download “Behind Closed Doors” Guitar Pro tab click button below
Please note that you must have Guitar Pro software installed on your
computer in order to view this file.
Suggest correction
comments
report bad tab
6 comments total. Showing first comments.
0 reply
raysetsfire 718 Jan 15, 2008 08:01 AM

really nice tab but I believe the riff is like
this:
-----------------------------------------|
-----------------------10----------------|
--------9h-11p-9---------
--11----9--11---|
--9h-12----------12p-9--------12---------|
-----------------------------------------|
-------------
----------------------------|

0 reply
raysetsfire 718 Jan 15, 2008 08:04 AM

****ing ****, I meant these as the last 4
notes
----------------|
----------------|
--11----9--11---|
-----12---------|
----------------|
----------------|

----------------|

----------------------------|

0 reply
chromaticvision 4,067 Jan 15, 2008 01:11 PM

You're right, i'm gutted that i missed that.

guest
You may want to rate the tab now too:
select rating