Oops, an error
Loading. Please wait.

Black Masks And Gasoline tab

version 2
version 2

Whole song

Interactive

25,455 views 15 this week
3 commentsread comments
1 2 3 4 5
x 18
add to favorites
×
Save as Personal and add changes to this tab that will be seen only by you. Learn more ›
×
You can save this tab as Personal to edit and correct it or add notes. All changes will be seen only by you. Learn more »
launch autoscroll
font size
0
reset
how to read this tab
guitar tuner
edit
Autoscroll
slow
fast
+/-
esc
set tempo
stop
Author
Rise Against - Black Masks and Gasoline

Tabs by Punkwolf

e|--------------------|--------------------|
B|--------------------|--------------------|
G|--2---2-4---4-6-----|--2---2-4---4-6-----|
D|--2-2-2-4-4-4-6-6~--|--2-2-2-4-4-4-6-6~--|
A|--0-2-0-2-4-2-4-6~--|--0-2-0-2-4-2-4-6~--|
E|----0-----2-----4~--|----0-----2-----4~--|

e|--4---------------------7------------------------|
B|--4----------9----------7----------11------------|
G|--4----------9----------8----------11------------|
D|--6----------9----------9----------11------------|
A|--6----------7----------9-----------9------------|
E|--4---------------------7------------------------|
Simply because you can breathe, doesn't mean you're alive or that you really live

e|--4---------------------7------------------------|
B|--4----------9----------7----------11------------|
G|--4----------9----------8----------11------------|
D|--6----------9----------9----------11------------|
A|--6----------7----------9-----------9------------|
E|--4---------------------7------------------------|
This life has taken its toll, she just doesn't know how much more she can give

e|--4---------------------7------------------------|
B|--4----------9----------7----------11------------|
G|--4----------9----------8----------11------------|
D|--6----------9----------9----------11------------|
A|--6----------7----------9-----------9------------|
E|--4---------------------7------------------------|
But here, at the top of the world, where I raise my hand and I clench my fist

e|--4---------------------7------------------------|
B|--4----------9----------7----------11------------|
G|--4----------9----------8----------11------------|
D|--6----------9----------9----------11------------|
A|--6----------7----------9-----------9------------|
E|--4---------------------7------------------------|
They stand before me bellow, demanding the answers with flicks of a switch

e|-------------------------------------------------|
B|-------------------------------------------------|
G|--9-9-9-9-9-9-9-9-9-9----------------------------|
D|--9-9-9-9-9-9-9-9-9-9-99-4-4-4-4-4-4-4-4-4-4-55--|
A|--7-7-7-7-7-7-7-7-7-7-99-4-4-4-4-4-4-4-4-4-4-55--|
E|----------------------77-2-2-2-2-2-2-2-2-2-2-33--|

e|----------------------------------------------------|
B|----------------------------------------------------|
G|--------------11-11-11-11-11-11-9-9-9-9-9-9-8-9-11--|
D|--6-6-6-6-6-6-11-11-11-11-11-11-9-9-9-9-9-9-8-9-11--|
A|--6-6-6-6-6-6--9--9--9--9--9--9-7-7-7-7-7-7-6-7--9--|
E|--4-4-4-4-4-4---------------------------------------|
I don't understand where you got this idea

e|---------------------------------------------------|
B|---------------------------------------------------|
G|--------------11-11-11-11-11-11-9-9-9-9-9-9-8-6-4--|
D|--6-6-6-6-6-6-11-11-11-11-11-11-9-9-9-9-9-9-8-6-4--|
A|--6-6-6-6-6-6--9--9--9--9--9--9-7-7-7-7-7-7-6-4-2--|
E|--4-4-4-4-4-4--------------------------------------|
So deeply engrained in your head (that this world)

e|----------------------------------------------------|
B|----------------------------------------------------|
G|--------------11-11-11-11-11-11-9-9-9-9-9-9-8-9-11--|
D|--6-6-6-6-6-6-11-11-11-11-11-11-9-9-9-9-9-9-8-9-11--|
A|--6-6-6-6-6-6--9--9--9--9--9--9-7-7-7-7-7-7-6-7--9--|
E|--4-4-4-4-4-4---------------------------------------|
Is something that you must impress

e|--------------------------------------------------------------------|
B|--------------------------------------------------------------------|
G|--------------11-11-11-11-11-11-99-88-66-44-------------------------|
D|--6-6-6-6-6-6-11-11-11-11-11-11-------------4-4-4-4-4-4-4-4-4-4-55--|
A|--6-6-6-6-6-6--9--9--9--9--9--9-77-66-44-22-4-4-4-4-4-4-4-4-4-4-55--|
E|--4-4-4-4-4-4-------------------------------2-2-2-2-2-2-2-2-2-2-33--|
Cuz I couldn't care less

e|--4---------------------7------------------------|
B|--4----------9----------7----------11------------|
G|--4----------9----------8----------11------------|
D|--6----------9----------9----------11------------|
A|--6----------7----------9-----------9------------|
E|--4---------------------7------------------------|
A need for revolution rises, it comes to the surface gasping for air

e|--4---------------------7------------------------|
B|--4----------9----------7----------11------------|
G|--4----------9----------8----------11------------|
D|--6----------9----------9----------11------------|
A|--6----------7----------9-----------9------------|
E|--4---------------------7------------------------|
I will not put it up with this planet one more day, much less one more year

e|-------------------------------------------------|
B|-------------------------------------------------|
G|--9-9-9-9-9-9-9-9-9-9----------------------------|
D|--9-9-9-9-9-9-9-9-9-9-99-4-4-4-4-4-4-4-4-4-4-55--|
A|--7-7-7-7-7-7-7-7-7-7-99-4-4-4-4-4-4-4-4-4-4-55--|
E|----------------------77-2-2-2-2-2-2-2-2-2-2-33--|

e|----------------------------------------------------|
B|----------------------------------------------------|
G|--------------11-11-11-11-11-11-9-9-9-9-9-9-8-9-11--|
D|--6-6-6-6-6-6-11-11-11-11-11-11-9-9-9-9-9-9-8-9-11--|
A|--6-6-6-6-6-6--9--9--9--9--9--9-7-7-7-7-7-7-6-7--9--|
E|--4-4-4-4-4-4---------------------------------------|
And I don't understand where you got this idea

e|---------------------------------------------------|
B|---------------------------------------------------|
G|--------------11-11-11-11-11-11-9-9-9-9-9-9-8-6-4--|
D|--6-6-6-6-6-6-11-11-11-11-11-11-9-9-9-9-9-9-8-6-4--|
A|--6-6-6-6-6-6--9--9--9--9--9--9-7-7-7-7-7-7-6-4-2--|
E|--4-4-4-4-4-4--------------------------------------|
So deeply engrained in your head (that this world)

e|----------------------------------------------------|
B|----------------------------------------------------|
G|--------------11-11-11-11-11-11-9-9-9-9-9-9-8-9-11--|
D|--6-6-6-6-6-6-11-11-11-11-11-11-9-9-9-9-9-9-8-9-11--|
A|--6-6-6-6-6-6--9--9--9--9--9--9-7-7-7-7-7-7-6-7--9--|
E|--4-4-4-4-4-4---------------------------------------|
Is something that you must impress

e|--------------------------------------------------------------------|
B|--------------------------------------------------------------------|
G|--------------11-11-11-11-11-11-99-88-66-44-------------------------|
D|--6-6-6-6-6-6-11-11-11-11-11-11-------------4-4-4-4-4-4-4-4-4-4-55--|
A|--6-6-6-6-6-6--9--9--9--9--9--9-77-66-44-22-4-4-4-4-4-4-4-4-4-4-55--|
E|--4-4-4-4-4-4-------------------------------2-2-2-2-2-2-2-2-2-2-33--|
Cuz I couldn't care less

e|-------------------------------------------|
B|-------------------------------------------|
G|--------------------------------44----666--|
D|--6-6-6-6---6-6-6-6---6-6-6-6---44-44-666--|
A|--6-6-6-6---6-6-6-6---6-6-6-6---22-44-444--|
E|--4-4-4-4---4-4-4-4---4-4-4-4------22------|
So here and now, in our rotting nation

e|---------------------------------------------|
B|--------------------------------*-*-*-*-*-*--|
G|--------------------------------4-4-4-6-6-6--|
D|--6-6-6-6---6-6-6-6---6-6-6-6---4-4-4-6-6-6--|
A|--6-6-6-6---6-6-6-6---6-6-6-6---2-2-2-4-4-4--|
E|--4-4-4-4---4-4-4-4---4-4-4-4----------------|
The bond, it binds, it's all on our hands now

e|-------------------------------------------|
B|-------------------------------------------|
G|--------------------------------44----666--|
D|--6-6-6-6---6-6-6-6---6-6-6-6---44-44-666--|
A|--6-6-6-6---6-6-6-6---6-6-6-6---22-44-444--|
E|--4-4-4-4---4-4-4-4---4-4-4-4------22------|
We live in fear of our own potential

e|------------------------------------------------|
B|--------------------------------*-*-*-*-*-*-----|
G|--------------------------------4-4-4-6-6-6-----|
D|--6-6-6-6---6-6-6-6---6-6-6-6---4-4-4-6-6-6-6~--|
A|--6-6-6-6---6-6-6-6---6-6-6-6---2-2-2-4-4-4-6~--|
E|--4-4-4-4---4-4-4-4---4-4-4-4---------------4~--|
To win, to lose, it's all on our hands now

And I have an american dream but it envolves black masks and gasoline

e|--4---------------------7------------------------|
B|--4----------9----------7----------11------------|
G|--4----------9----------8----------11------------|
D|--6----------9----------9----------11------------|
A|--6----------7----------9-----------9------------|
E|--4---------------------7------------------------|
One day I'll turn these thoughts into screams at a world that turned its back down on me

e|-------------------------------------------------|
B|-------------------------------------------------|
G|--9-9-9-9-9-9-9-9-9-9----------------------------|
D|--9-9-9-9-9-9-9-9-9-9-99-4-4-4-4-4-4-4-4-4-4-55--|
A|--7-7-7-7-7-7-7-7-7-7-99-4-4-4-4-4-4-4-4-4-4-55--|
E|----------------------77-2-2-2-2-2-2-2-2-2-2-33--|

e|----------------------------------------------------|
B|----------------------------------------------------|
G|--------------11-11-11-11-11-11-9-9-9-9-9-9-8-9-11--|
D|--6-6-6-6-6-6-11-11-11-11-11-11-9-9-9-9-9-9-8-9-11--|
A|--6-6-6-6-6-6--9--9--9--9--9--9-7-7-7-7-7-7-6-7--9--|
E|--4-4-4-4-4-4---------------------------------------|
I don't understand where you got this idea

e|---------------------------------------------------|
B|---------------------------------------------------|
G|--------------11-11-11-11-11-11-9-9-9-9-9-9-8-6-4--|
D|--6-6-6-6-6-6-11-11-11-11-11-11-9-9-9-9-9-9-8-6-4--|
A|--6-6-6-6-6-6--9--9--9--9--9--9-7-7-7-7-7-7-6-4-2--|
E|--4-4-4-4-4-4--------------------------------------|
So deeply engrained in your head (that this world)

e|----------------------------------------------------|
B|----------------------------------------------------|
G|--------------11-11-11-11-11-11-9-9-9-9-9-9-8-9-11--|
D|--6-6-6-6-6-6-11-11-11-11-11-11-9-9-9-9-9-9-8-9-11--|
A|--6-6-6-6-6-6--9--9--9--9--9--9-7-7-7-7-7-7-6-7--9--|
E|--4-4-4-4-4-4---------------------------------------|
Is something that you must impress

e|-----------------------------------------------------------------------|
B|-----------------------------------------------------------------------|
G|--------------11-11-11-11-11-11-99-88-66-44----------------------------|
D|--6-6-6-6-6-6-11-11-11-11-11-11-------------4-4-4-4-4-4-4-4-4-4-55-6~--|
A|--6-6-6-6-6-6--9--9--9--9--9--9-77-66-44-22-4-4-4-4-4-4-4-4-4-4-55-6~--|
E|--4-4-4-4-4-4-------------------------------2-2-2-2-2-2-2-2-2-2-33-4~--|
Cuz I couldn't care less

* Palm mute
~ Let ring

            
            
Suggest correction
Creating personal tab
Creating personal tab
You can edit any tab online and save it as your Personal.

You can edit, replace or remove any tab part or add personal notes – all changes will be seen only by you.

Personal tabs can be accessed anytime from any device, even offline.
Learn more »
comments
print report bad tab
3 comments total. show 1 bad comment
0 reply
PushinBrown 10 Jul 18, 2007 05:11 PM

9 strums in the intro. Good job on the rest of the tab.

-2 reply
ReReEducation 10 Jul 24, 2010 11:35 AM

the intro should be

e|----------------------|--------------------|
B|----------------------|--------------------|
G|--2---2-4-4---4-6-----|--2---2-4-4---4-6-----|
D|--2-2-2-4-4-4-4-6-6~--|--2-2-2-4-4-4-4-6-6~--|
A|--0-2-0-2-2-4-2-4-6~--|--0-2-0-2-2-4-2-4-6~--|
E|----0-------2-----4~--|----0-------2-----4~--|

just an extra strum on 2-2-4 ^^ its hard to hear so cant blame you :D

guest
You may want to rate the tab now too:
select rating
Wanna post a correction for this tab? Suggest correction