Oops, an error
Loading. Please wait.

Broken Mirrors bass

1,781 views 6 this week
no commentswrite comment
1 2 3 4 5
x 3
add to favorites
×
Save as Personal and add changes to this tab that will be seen only by you. Learn more ›
×
You can save this tab as Personal to edit and correct it or add notes. All changes will be seen only by you. Learn more »
launch autoscroll
font size
0
reset
guitar tuner
edit
Autoscroll
slow
fast
+/-
esc
set tempo
stop
0:06
F#|------}---------------------------|
C#|------|o-------------------------o|
G#|------|o-------------------------o| x8
D#|-12-\-|--0---0-0---0-0---0-3-2-3--|

0:20
F#|-------------------------------------------------|
C#|-------------------------------------------------|
G#|-------------------------------------------------|
D#|-0---0-0---0-0---0-0---0-0---0-0---0-0---0-3-2-3-|

F#|-------------------------------------------------|
C#|-------------------------------------------------|
G#|-------------------------------------------7-7-7-|
D#|-0---0-0---0-0---0-0---0-0---0-0---0-0---0-------|

F#|-------------------------------------------------|
C#|-------------------------------------------------|
G#|-------------------------------------------------|
D#|-0---0-0---0-0---0-0---0-0---0-0---0-0---0-3-2-3-|

F#|-------------------------------------------------|
C#|-------------------------------------------------|
G#|-------------------------------------------------|
D#|-0---0-0---0-0---0-0---0-0---0-0---0-0---0-0-0-0-|

0:33
F#|-------------------------------------------------|
C#|-------------------------------------------------|
G#|-------------------------------------------------|
D#|-3-3-3-3-3-3-3-3-3-3-3-3-5-5-5-5-5-5-5-5-5-5-5-5-|

F#|-------------------------------------------------|
C#|-------------------------------------------------|
G#|-------------------------------------------------|
D#|-0---0-0---0-0---0-0---0-0---0-0---0-0---0-3---0-|

F#|-------------------------------------------------|
C#|-------------------------------------------------|
G#|-------------------------------------------------|
D#|-3-3-3-3-3-3-3-3-3-3-3-3-5-5-5-5-5-5-5-5-5-5-5-5-|

F#|-------------------------------------------------|
C#|-------------------------------------------------|
G#|-------------------------7-7-7-7-7-7-7-7-7-7-7-7-|
D#|-0---0-0---0-0---0-0---0-------------------------|

0:47
F#|-------------------------------------------------|
C#|-------------------------------------------------|
G#|-------------------------3---3-3---3-3---3-3-----|
D#|-0---0-0---0-0---0-0-----------------------------|

F#|-------------------------------------------------|
C#|-------------------------------------------------|
G#|-------------------------5---5-5---5-5---5-5---5-|
D#|-3---3-3---3-3---3-3---3-------------------------|

0:54
F#|-------------------------------------------------|
C#|-------------------------------------------------|
G#|-------------------------3---3-3---3-3---3-3---3-|
D#|-0---0-0---0-0---0-0-----------------------------|

F#|-------------------------------------------------|
C#|-------------------------------------------------|
G#|-------------------------5-5-5-5-5-5-5-5-5-5-5-5-|
D#|-3---3-3---3-3---3-3---3-------------------------|

1:00
F#|-------------------------------------------------|
C#|-------------------------------------------------|
G#|-7---7-7---7-7---7-7-----3---3-3---3-3---3-3---3-|
D#|-------------------------------------------------|

F#|-------------------------------------------------|
C#|-5-----5-----9-----10----7-----------------------|
G#|-----------------------------5-5---5-5---5-5---5-|
D#|-------------------------------------------------|

1:07
F#|-------------------------------------------------|
C#|-------------------------------------------------|
G#|-------------------------3---3-3---3-3---3-3-----|
D#|-0---0-0---0-0---0-0-----------------------------|

F#|-------------------------------------------------|
C#|-------------------------------------------------|
G#|-------------------------------------------------|
D#|-3---3-3---3-3---3-3---3-5-5-5-5-----2-2-2-2-----|

F#|-------------------------------------------------|
C#|-------------------------------------------------|
G#|-------------------------------------------------|
D#|-0------------------------------------------12-\-|

1:17
F#|---------------------------------------------------|
C#|o-------------------------------------------------o|
G#|o-------------------------------------------------o|
D#|--0---0-0---0-0---0-3-2-3-0---0-0---0-0---0-3-2-3--|

1:23
F#|-------------------------------------------------|
C#|-------------------------------------------------|
G#|-------------------------------------------------|
D#|-0---0-0---0-0---0-0---0-0---0-0---0-0---0-0---0-|

F#|-------------------------------------------------|
C#|-------------------------------------------------|
G#|-----------------------------------------7-7-7-7-|
D#|-0---0-0---0-0---0-0---0-0---0-0---0-0-----------|

F#|-------------------------------------------------|
C#|-------------------------------------------------|
G#|-------------------------------------------------|
D#|-0---0-0---0-0---0-0---0-0---0-0---0-0---0-3-2-3-|

F#|-------------------------------------------------|
C#|-------------------------------------------------|
G#|-------------------------------------------------|
D#|-0---0-0---0-0---0-0---0-0---0-0---0-0---0-0-0-0-|

1:37
F#|-------------------------------------------------|
C#|-------------------------------------------------|
G#|-------------------------------------------------|
D#|-3-3-3-3-3-3-3-3-3-3-3-3-5-5-5-5-5-5-5-5-5-5-5-5-|

F#|-------------------------------------------------|
C#|-------------------------------------------------|
G#|-------------------------------------------------|
D#|-0---0-0---0-0---0-0---0-0---0-0---0-0---0-3---0-|

F#|-------------------------------------------------|
C#|-------------------------------------------------|
G#|-------------------------------------------------|
D#|-3-3-3-3-3-3-3-3-3-3-3-3-5-5-5-5-5-5-5-5-5-5-5-5-|

1:47
F#|-------------------------------------------------|
C#|-5-5-5-4-4-4-------------5-7-7-7-7-7-7-7-7-7-7-7-|
G#|-------------5-5-5-0-0-0-------------------------|
D#|-------------------------------------------------|

1:51
F#|-------------------------------------------------|
C#|-------------------------------------------------|
G#|-7-----------------------3---3-3---3-3---3-3-----|
D#|-----0-0---0-0---0-0-----------------------------|

F#|-------------------------------------------------|
C#|-------------------------------------------------|
G#|-------------------------5---5-5---5-5---5-5---5-|
D#|-3---3-3---3-3---3-3---3-------------------------|

1:57
F#|-------------------------------------------------|
C#|-------------------------------------------------|
G#|-7-----------------------3---3-3---3-3---3-3---3-|
D#|-----0-0---0-0---0-0-----------------------------|

F#|-------------------------------------------------|
C#|-------------------------------------------------|
G#|-------------------------5-5-5-5-5-5-5-5-5-5-5-5-|
D#|-3---3-3---3-3---3-3---3-------------------------|

2:04
F#|-------------------------------------------------|
C#|-------------------------------------------------|
G#|-5---7-7---7-7---7-7-----3---3-3---3-3---3-3---3-|
D#|-------------------------------------------------|

F#|-------------------------------------------------|
C#|-5-----5-----9-----10----7-----------------------|
G#|-----------------------------5-5---5-5---5-5---5-|
D#|-------------------------------------------------|

2:11
F#|-------------------------------------------------|
C#|-------------------------------------------------|
G#|-7-----------------------3---3-3---3-3---3-3-----|
D#|-----0-0---0-0---0-0-----------------------------|

F#|-------------------------------------------------|
C#|-------------------------------------------------|
G#|-------------------------------------------------|
D#|-3---3-3---3-3---3-3---3-5-5-5-5-----2-2-2-2-----|

F#|-------------------------------------------------|
C#|-------------------------------------------------|
G#|-----------------------------------------------5-|
D#|-0-----------------------------------------------|

F#|-------------------------------------------------|
C#|-------------------------------------------------|
G#|-7-----------------------------------------7---5-|
D#|-------------------------------------------------|

2:26
F#|-------------------------------------------------------------------|
C#|o---------------------5-----7-------------------------5-----------o|
G#|o---------7-------------------------------7-----------------5-----o|
D#|--0-0-0-0---0-0-0-0-0---0-0---0-0-0-0-0-0---0-0-0-0-0---0-0---0-0--|

2:35
F#|-------------------------------------------------------------------| 
C#|o---------------------5-----7-------------------------5-----------o|
G#|o---------7-------------------------------7-----------------5-----o|
D#|--0-0-0-0---0-0-0-0-0---0-0---0-0-0-0-0-0---0-0-0-0-0---0-0---0-0--|

2:45
F#|---------------------7-----9-------------------------7-----5---4-|
C#|-----------------------------------------------------------------|
G#|---------7-------------------------------7-----------------------|
D#|-0-0-0-0---0-0-0-0-0---0-0---0-0-0-0-0-0---0-0-0-0-0---0-0-------|

F#|---------------------7-----9-----------------------4---7---7---4-|
C#|---------9-------------------------------------------------------|
G#|-----------------------------------------7-----------------------|
D#|-0-0-0-0---0-0-0-0-0---0-0---0-0-0-0-0-0---0-0-0-0---------------|

2:53
F#|-----------------------------------------------------------------|
C#|-----------------------------------------------------------------|
G#|-3-3-3---3-3-3---3-3-3---3-3-3---3-3-2-2-0-0---------------------|
D#|---------------------------------------------3-3-2-2-0-0-2-2-3-3-|

F#|-----------------------------------------------------------------|
C#|-----------------------------------------------------------------|
G#|-5-5-5---5-5-5---5-5-5---5-5-5---5-5-5-5-5-5-5-5-5-5-5-5-3---5---|
D#|-----------------------------------------------------------------|

3:02
F#|-----------------------------------------------------------------|
C#|-----------------------------------------------------------------|
G#|-------------------------------------------------------------3-/-|
D#|-0---------------------------------------------------------------|

3:08
F#|-----------------------------------------------------------------|
C#|---------------------------------9-------10---9---7--------------|
G#|-7---------------10----------------------------------------------|
D#|----------------------------------------------------------/-12-\-|

3:16
F#|-------------------------------------------------|
C#|-------------------------------------------------|
G#|-7-----------------------3---3-3---3-3---3-3-----|
D#|-----0-0---0-0---0-0-----------------------------|

F#|-------------------------------------------------|
C#|-------------------------------------------------|
G#|-------------------------5---5-5---5-5---5-5---5-|
D#|-3---3-3---3-3---3-3---3-------------------------|

3:22
F#|-------------------------------------------------|
C#|-------------------------------------------------|
G#|-7-----------------------3---3-3---3-3---3-3-----|
D#|-----0-0---0-0---0-0-----------------------------|

F#|-------------------------------------------------|
C#|-------------------------------------------------|
G#|-------------------------5-5-5-5-5-5-5-5-5-5-5-5-|
D#|-3---3-3---3-3---3-3---3-------------------------|

3:29
F#|-------------------------------------------------|
C#|-------------------------------------------------|
G#|-5---7-7---7-7---7-7-----3---3-3---3-3---3-3-----|
D#|-------------------------------------------------|

F#|-------------------------------------------------|
C#|-5-----5-----9-----10----12--0-0---0-5---5-4---4-|
G#|-------------------------------------------------|
D#|-------------------------------------------------|

F#|-------------------------------------------------|
C#|-------------------------------------------------|
G#|-7-----------------------3---3-3---3-3---3-3-----|
D#|-----0-0---0-0---0-0-----------------------------|

F#|-------------------------------------------------------------|
C#|-------------------------------------------------------------|
G#|-------------------------------------------------------------|
D#|-3---3-3---3-3---3-3-----5-----------2-----------0-----------|
Tabbed by Dave Vucko

            
            
Suggest correction
Creating personal tab
Creating personal tab
You can edit any tab online and save it as your Personal.

You can edit, replace or remove any tab part or add personal notes – all changes will be seen only by you.

Personal tabs can be accessed anytime from any device, even offline.
Learn more »
Give kudos to tab author, rate the tab!
1 2 3 4 5
comments
print report bad tab
guest
You may want to rate the tab now too:
select rating
Wanna post a correction for this tab? Suggest correction