Oops, an error
Loading. Please wait.
We have Chord Pro version of Bullshit.
It's the closest thing you can get to the original song and it has interactive parts. Check out the tab »
×
745 views 24 this week
no commentswrite comment
1 2 3 4 5
x 4
add to favorites
×
Save as Personal and add changes to this tab that will be seen only by you. Learn more ›
×
You can save this tab as Personal to edit and correct it or add notes. All changes will be seen only by you. Learn more »
launch autoscroll
font size
0
reset
how to read this tab
guitar tuner
edit
Autoscroll
slow
fast
+/-
esc
set tempo
stop
[Intro]
Guitar 1
D#|----------------|---------------|
A#|----------------|---------------|
F#|----------------|---------------|x4 On final repeat play last note once
C#|--------9---9---|---------------|
G#|------9---9---7-|5-5-5-5-7-7-7-7|
D#|7-7-7-----------|---------------|

[Guitar 2]
play on final repeat
D#|----------------|---------------|
A#|----------------|---------------|
F#|----------------|------------7*-|
C#|----------------|---------------|
G#|----------------|---------------|
D#|----------------|---------------|
 
[Guitar 1]                               x3
D#|--------------------|----------------|------------------------|--------------------|
A#|---------12----12---|----------------|------------------------|--------------------|
F#|------11----11----9-|7-7-7-7-9-9-9-9-|19-19-18-18-14-14-19-19-|18-18-14-14-19--18--|
C#|9-9-9---------------|----------------|------------------------|--------------------|
G#|--------------------|----------------|17-17-16-16-12-12-17-17-|16-16-12-12-17--16--|
D#|--------------------|----------------|------------------------|--------------------|

[Guitar 2]                           x3
D#|----------------|----------------|----------------|-------------|
A#|----------------|----------------|----------------|-------------|
F#|4-4-4-4-4-4-4-4-|7-7-7-7-9-9-9-9-|----------------|-------------|
C#|4-4-4-4-4-4-4-4-|7-7-7-7-9-9-9-9-|5-5-5-5-5-5-5-5-|5-5-5-5-5-7--|
G#|2-2-2-2-2-4-2-4-|5-5-5-5-7-7-7-7-|5-5-5-5-5-5-5-5-|5-5-5-5-5-7--|
D#|----------------|----------------|3-3-3-3-3-3-3-3-|3-3-3-3-3-5--|

[Verse]
[Guitar 1]
   Let ring for 8 bars
D#|---------------|
A#|12-------------|
F#|11-------------|
C#|9--------------|
G#|9--------------|
D#|---------------|

D#|-----------------|----------------|--------------|----------------|------------------|--------------|
A#|-----12--12--12--|----10-----12-12|--12--12--12--|----12--12--12--|------10-----12-12|--12--12--12--|
F#|9/11-11--11--11--|----9------11-11|--11--11--11--|----11--11--11--|----9-9------11-11|--11--11--11--|
C#|7/9--------------|5/7----7/9------|--------------|7/9-------------|5/7------7/9------|--------------|
G#|-----------------|----------------|--------------|----------------|------------------|--------------|
D#|-----------------|----------------|--------------|----------------|------------------|--------------|

[Guitar 2]
   Let ring for 8 bars
D#|---------------|
A#|---------------|
F#|---------------|
C#|9--------------|
G#|9--------------|
D#|7--------------|

[Pre-Chorus]
[Guitar 1]
D#|-------------------------|----------------------|--------------------------|
A#|----14p12-14-15-14p12----|----12-14p12-14-15-14-|----15-14p12-14-15-14p12--|
F#|----------------------14-|----------------------|--------------------------|
C#|-------------------------|----------------------|--------------------------|
G#|-------------------------|----------------------|--------------------------|
D#|-------------------------|----------------------|--------------------------|

[Guitar 2]
  let ring -----------------------|            let ring -----|
D#|---------------|---------------|--------------|---------------|
A#|---------------|---------------|--------------|---------------|
F#|---------------|---------------|7-------------|------------6h7|
C#|5--------------|---------------|7-----------7-|---------------|
G#|5--------------|---------------|5-----------7-|---------------|
D#|3--------------|---------------|------------5-|---------------|

   let ring ----------------------|
D#|---------------|---------------|----------------|---------------|
A#|---------------|---------------|----------------|---------------|
F#|---------------|---------------|----------------|---------------|
C#|5--------------|---------------|7-7-7-7-7-7-7-7-|7-7-7-7-7------|
G#|5--------------|---------------|7-7-7-7-7-7-7-7-|7-7-7-7-7------|
D#|3--------------|---------------|5-5-5-5-5-5-5-5-|5-5-5-5-5------|


[Chorus] 
Guitar 1                               x3
D#|--------------------|----------------|------------------------|----------------------|
A#|---------12----12---|----------------|------------------------|----------------------|
F#|------11----11----9-|7-7-7-7-9-9-9-9-|19-19-18-18-14-14-19-19-|18-18-14-14-19-19-18--|
C#|9-9-9---------------|----------------|------------------------|----------------------| x2
G#|--------------------|----------------|17-17-16-16-12-12-17-17-|16-16-12-12-17-17-16--|
D#|--------------------|----------------|------------------------|----------------------|

[Guitar 2]
D#|----------------|----------------|----------------|----------------|
A#|----------------|----------------|----------------|----------------|
F#|4-4-4-4-4-4-4-4-|4-4-4-4-4-4-4-4-|----------------|----------------|
C#|4-4-4-4-4-4-4-4-|4-4-4-4-4-4-4-4-|7-7-7-7-7-7-7-7-|7-7-7-7-7-7-7-7-|
G#|2-2-2-2-2-2-2-2-|2-2-2-2-2-2-2-2-|7-7-7-7-7-7-7-7-|7-7-7-7-7-7-7-7-|
D#|----------------|----------------|5-5-5-5-5-5-5-5-|5-5-5-5-5-5-5-5-|
                                                                          x2
D#|----------------|----------------|----------------|----------------|
A#|----------------|----------------|----------------|----------------|
F#|7-7-7-7-7-7-7-7-|7-7-7-7-7-7-7-7-|----------------|----------------|
C#|7-7-7-7-7-7-7-7-|7-7-7-7-7-7-7-7-|2-2-2-2-2-2-2-2-|5-5-5-5-7-7-7-7-|
G#|5-5-5-5-5-5-5-5-|5-5-5-5-5-5-5-5-|2-2-2-2-2-2-2-2-|5-5-5-5-7-7-7-7-|
D#|----------------|----------------|0-0-0-0-0-0-0-0-|3-3-3-3-5-5-5-5-|

[Interlude]
[Guitar 1 only]
D#|----------------|----------------|
A#|----------------|----------------|
F#|----------------|----------------|
C#|----------------|----------------|
G#|-----------7----|----------------|
D#|7-7-7-9-10---5--|---x-6--7\\\\---|

[Verse]
[Guitar 1]
D#|-----------------|----------------|--------------|----------------|------------------|--------------|
A#|-----12--12--12--|----10-----12-12|--12--12--12--|----12--12--12--|------10-----12-12|--12--12--12--|
F#|9/11-11--11--11--|----9------11-11|--11--11--11--|----11--11--11--|----9-9------11-11|--11--11--11--|
C#|7/9--------------|5/7----7/9------|--------------|7/9-------------|5/7------7/9------|--------------|
G#|-----------------|----------------|--------------|----------------|------------------|--------------|
D#|-----------------|----------------|--------------|----------------|------------------|--------------|

[Pre-Chorus]
[Guitar 1]
D#|-------------------------|----------------------|--------------------------|
A#|----14p12-14-15-14p12----|----12-14p12-14-15-14-|----15-14p12-14-15-14p12--|
F#|----------------------14-|----------------------|--------------------------|
C#|-------------------------|----------------------|--------------------------|
G#|-------------------------|----------------------|--------------------------|
D#|-------------------------|----------------------|--------------------------|

[Guitar 2]
  let ring -----------------------|            let ring -----|
D#|---------------|---------------|--------------|---------------|
A#|---------------|---------------|--------------|---------------|
F#|---------------|---------------|7-------------|---------------|
C#|5--------------|---------------|7-----------7-|---------------|
G#|5--------------|---------------|5-----------7-|---------------|
D#|3--------------|---------------|------------5-|---------------|

   let ring ----------------------|
D#|---------------|---------------|----------------|
A#|---------------|---------------|----------------|
F#|---------------|---------------|----------------|
C#|5--------------|---------------|7\--------------|
G#|5--------------|---------------|7\--------------|
D#|3--------------|---------------|5\--------------|

[Chorus] 
Guitar 1                               x3
D#|--------------------|----------------|------------------------|----------------------|
A#|---------12----12---|----------------|------------------------|----------------------|
F#|------11----11----9-|7-7-7-7-9-9-9-9-|19-19-18-18-14-14-19-19-|18-18-14-14-19-19-18--|
C#|9-9-9---------------|----------------|------------------------|----------------------| x2
G#|--------------------|----------------|17-17-16-16-12-12-17-17-|16-16-12-12-17-17-16--|
D#|--------------------|----------------|------------------------|----------------------|

[Guitar 2]
D#|----------------|----------------|----------------|----------------|
A#|----------------|----------------|----------------|----------------|
F#|4-4-4-4-4-4-4-4-|4-4-4-4-4-4-4-4-|----------------|----------------|
C#|4-4-4-4-4-4-4-4-|4-4-4-4-4-4-4-4-|7-7-7-7-7-7-7-7-|7-7-7-7-7-7-7-7-|
G#|2-2-2-2-2-2-2-2-|2-2-2-2-2-2-2-2-|7-7-7-7-7-7-7-7-|7-7-7-7-7-7-7-7-|
D#|----------------|----------------|5-5-5-5-5-5-5-5-|5-5-5-5-5-5-5-5-|
                                                                          x2
D#|----------------|----------------|----------------|----------------|
A#|----------------|----------------|----------------|----------------|
F#|7-7-7-7-7-7-7-7-|7-7-7-7-7-7-7-7-|----------------|----------------|
C#|7-7-7-7-7-7-7-7-|7-7-7-7-7-7-7-7-|2-2-2-2-2-2-2-2-|5-5-5-5-7-7-7-7-|
G#|5-5-5-5-5-5-5-5-|5-5-5-5-5-5-5-5-|2-2-2-2-2-2-2-2-|5-5-5-5-7-7-7-7-|
D#|----------------|----------------|0-0-0-0-0-0-0-0-|3-3-3-3-5-5-5-5-|

[Interlude]
[Guitar 1]
D#|----------------|-------------------|------------------------|---------------------|
A#|----------------|-------------------|------------------------|---------------------|
F#|----------------|-------------------|16-16-16-14-14-14-12-12-|12-14-14-14-9-9-11-11|
C#|------9-9-9-----|-------------------|------------------------|---------------------|
G#|------------9-9-|9-10-10-10-7-7-9-9-|14-14-14-12-12-12-10-10-|10-12-12-12-7-7-9--9-|
D#|7-7-7-----------|-------------------|------------------------|---------------------|
                                       |Guitar 2 comes in here
[Guitar 2]
D#|----------------|---------------|
A#|----------------|---------------|
F#|----------------|---------------|
C#|9-9-9-7-7-7-5-5-|5-7-7-7-2-2-4-4|
G#|9-9-9-7-7-7-5-5-|5-7-7-7-2-2-4-4|
D#|7-7-7-5-5-5-3-3-|3-5-5-5-0-0-2-2|

[Guitar 1]
last octave fades into bridge
D#|----------------|-------------------|----------------|
A#|----------------|-------------------|----------------|
F#|----------------|-------------------|16--x14--x12----|
C#|------9-9-9-----|-------------------|----x----x------|
G#|------------9-9-|9-10-10-10-7-7-9-9-|14--x12--x10----|
D#|7-7-7-----------|-------------------|----------------|
                                       |Guitar 2
[Guitar 2] 
D#|-------------|
A#|-------------|
F#|-------------|
C#|9--x7--x5----|
G#|9--x7--x5----|
D#|7--x5--x3----|

[Bridge]
[Guitar 1 only]
D#|------------------------|------------------------|------------------------|-----------------------|
A#|------------------------|10-10-10-10-10-10-10-10-|10-10-10-10-10-10-10-10-|12-12-12-12-12-12-12-12|
F#|12-12-12-12-12-12-12-12-|7--7--7--7--7--7--7--7--|9--9--9--9--9--9--9--9--|11-11-11-11-11-11-11-11|
C#|12-12-12-12-12-12-12-12-|7--7--7--7--7--7--7--7--|7--7--7--7--7--7--7--7--|9--9--9--9--9--9--9--9-|
G#|10-10-10-10-10-10-10-10-|------------------------|------------------------|-----------------------|
D#|------------------------|------------------------|------------------------|-----------------------|
   
D#|----------------|------------------------|------------------------|----------------|
A#|8-8-8-8-8-8-8-8-|10-10-10-10-10-10-10-10-|10-10-10-10-10-10-10-10-|10-10-10-10-10--|
F#|7-7-7-7-7-7-7-7-|7--7--7--7--7--7--7--7--|9--9--9--9--9--9--9--9--|9--9--9--9--9---|
C#|5-5-5-5-5-5-5-5-|7--7--7--7--7--7--7--7--|7--7--7--7--7--7--7--7--|7--7--7--7--7---|
G#|----------------|------------------------|------------------------|----------------|
D#|----------------|------------------------|------------------------|----------------|

[Guitar 1]x2
D#|----------------|------------------------|------------------------|-----------------------|
A#|8-8-8-8-8-8-8-8-|10-10-10-10-10-10-10-10-|10-10-10-10-10-10-10-10-|12-12-12-12-12-12-12-12|
F#|7-7-7-7-7-7-7-7-|7--7--7--7--7--7--7--7--|9--9--9--9--9--9--9--9--|11-11-11-11-11-11-11-11|
C#|5-5-5-5-5-5-5-5-|7--7--7--7--7--7--7--7--|7--7--7--7--7--7--7--7--|9--9--9--9--9--9--9--9-|
G#|----------------|------------------------|------------------------|-----------------------|
D#|----------------|------------------------|------------------------|-----------------------|
   
D#|----------------|------------------------|------------------------|-----------------------|
A#|8-8-8-8-8-8-8-8-|10-10-10-10-10-10-10-10-|10-10-10-10-10-10-10-10-|10-10-10-10-10-10-10-10|
F#|7-7-7-7-7-7-7-7-|7--7--7--7--7--7--7--7--|9--9--9--9--9--9--9--9--|9--9--9--9--9--9--9--9-|
C#|5-5-5-5-5-5-5-5-|7--7--7--7--7--7--7--7--|7--7--7--7--7--7--7--7--|7--7--7--7--7--7--7--7-|
G#|----------------|------------------------|------------------------|-----------------------|
D#|----------------|------------------------|------------------------|-----------------------|

[Guitar 2]x2
D#|----------------|----------------|----------------|---------------|
A#|----------------|----------------|----------------|---------------|
F#|----------------|7-7-7-7-7-7-7-7-|----------------|---------------|
C#|5-5-5-5-5-5-5-5-|7-7-7-7-7-7-7-7-|7-7-7-7-7-7-7-7-|9-9-9-9-9-9-9-9|
G#|5-5-5-5-5-5-5-5-|5-5-5-5-5-5-5-5-|7-7-7-7-7-7-7-7-|9-9-9-9-9-9-9-9|
D#|3-3-3-3-3-3-3-3-|----------------|5-5-5-5-5-5-5-5-|7-7-7-7-7-7-7-7|

D#|----------------|----------------|----------------|---------------|
A#|----------------|----------------|----------------|---------------|
F#|----------------|7-7-7-7-7-7-7-7-|----------------|---------------|
C#|5-5-5-5-5-5-5-5-|7-7-7-7-7-7-7-7-|7-7-7-7-7-7-7-7-|7-7-7-7-7-7-7-7|
G#|5-5-5-5-5-5-5-5-|5-5-5-5-5-5-5-5-|7-7-7-7-7-7-7-7-|7-7-7-7-7-7-7-7|
D#|3-3-3-3-3-3-3-3-|----------------|5-5-5-5-5-5-5-5-|5-5-5-5-5-5-5-5|

[Guitar 1]
bend slowly 
D#|----------------|
A#|----------------|
F#|----------------|
C#|9b10------------|
G#|----------------|
D#|----------------|

[Bridge 2]
[Guitar 1 only]                      x3
D#|----------------|---------------|-------------------|
A#|----------------|---------------|---------------9b10|
F#|----------------|---------------|-------------------|
C#|--------9---9---|---------------|-------9---9-------|
G#|------9---9---7-|5-5-5-5-7-7-7-7|-----9---9---7-----|
D#|7-7-7-----------|---------------|7-7-7--------------|

[Outro chorus]
[Guitar 2]
D#|----------------|----------------|----------------|----------------|
A#|----------------|----------------|----------------|----------------|
F#|4-4-4-4-4-4-4-4-|4-4-4-4-4-4-4-4-|----------------|----------------|
C#|4-4-4-4-4-4-4-4-|4-4-4-4-4-4-4-4-|7-7-7-7-7-7-7-7-|7-7-7-7-7-7-7-7-|
G#|2-2-2-2-2-2-2-2-|2-2-2-2-2-2-2-2-|7-7-7-7-7-7-7-7-|7-7-7-7-7-7-7-7-|
D#|----------------|----------------|5-5-5-5-5-5-5-5-|5-5-5-5-5-5-5-5-|
                                                                          x3
D#|----------------|----------------|----------------|----------------|
A#|----------------|----------------|----------------|----------------|
F#|7-7-7-7-7-7-7-7-|7-7-7-7-7-7-7-7-|----------------|----------------|
C#|7-7-7-7-7-7-7-7-|7-7-7-7-7-7-7-7-|2-2-2-2-2-2-2-2-|5-5-5-5-7-7-7-7-|
G#|5-5-5-5-5-5-5-5-|5-5-5-5-5-5-5-5-|2-2-2-2-2-2-2-2-|5-5-5-5-7-7-7-7-|
D#|----------------|----------------|0-0-0-0-0-0-0-0-|3-3-3-3-5-5-5-5-|

[Guitar 1 comes in on 1 repeat]
D#|--------------------|----------------|
A#|---------12----12---|----------------|
F#|------11----11----9-|7-7-7-7-9-9-9-9-|
C#|9-9-9---------------|----------------|x4
G#|--------------------|----------------|
D#|--------------------|----------------|

[Guitar 1]
D#|----------------|
A#|----------------|
F#|----------------|
C#|----------------|
G#|-----------7----|
D#|7-7-7-9-10---5--|

[Gutiar 2]
D#|---------------|
A#|---------------|
F#|---------------|
C#|9-9-9-9-9-9-9--|
G#|---------------|
D#|---------------|

************************************

| x   Dead note
| p   Pull-off
| b   Bend
| \   Slide down

************************************

            
            
Suggest correction
Creating personal tab
Creating personal tab
You can edit any tab online and save it as your Personal.

You can edit, replace or remove any tab part or add personal notes – all changes will be seen only by you.

Personal tabs can be accessed anytime from any device, even offline.
Learn more »
comments
print report bad tab
guest
You may want to rate the tab now too:
select rating
Wanna post a correction for this tab? Suggest correction