Oops, an error
Loading. Please wait.

But Tonight We Dance solo tab

version 2
version 2

Whole song

Interactive

1,850 views 1 this week
3 commentsread comments
1 2 3 4 5
x 6
add to favorites
×
Save as Personal and add changes to this tab that will be seen only by you. Learn more ›
×
You can save this tab as Personal to edit and correct it or add notes. All changes will be seen only by you. Learn more »
launch autoscroll
font size
0
reset
how to read this tab
guitar tuner
edit
Autoscroll
slow
fast
+/-
esc
set tempo
stop
Author
---------------------------------------------------------------------------
But Tonight We Dance – Rise Against
---------------------------------------------------------------------------

Tabbed by: Farether     
Email: Farether@hotmail.com

Tuning: Eb Ab Db Gb Bb eb

*Updated 29-05-07, changed the last part a bit


e|------------------------------------------------------------------------|
B|-13-12--------13-12---------------------------------------------12----12|
G|-------12-12--------12-14----------------12----------12b--12-14----14---|
D|----------------------------12-14-15-14----14-12-14---------------------|
A|------------------------------------------------------------------------|
E|------------------------------------------------------------------------|

e|------------------12----------------1212--------------------------------|
B|-13--15-13-12-13-----1515-1313-1515-------1515-1313-1212-1010/17--------|
G|------------------------------------------------------------------------|
D|------------------------------------------------------------------------|
A|------------------------------------------------------------------------|
E|------------------------------------------------------------------------|



            
            
Suggest correction
Creating personal tab
Creating personal tab
You can edit any tab online and save it as your Personal.

You can edit, replace or remove any tab part or add personal notes – all changes will be seen only by you.

Personal tabs can be accessed anytime from any device, even offline.
Learn more »
comments
print report bad tab
3 comments total.
0 reply
Musicislife539 98 May 28, 2007 05:11 PM

good tab, actually excellent, but i have a correction to the last line.

e|------------------12----------------1212--------------------------------|
B|-13--15-13-12-13-----1515-1313-1515-------1515-1313-1212-1010/17----------|

vs

e|------------------12----------------1212--------------------------------|
B|-13--15-13-12-13-----1515-1313-1515-------1515-1313-1515-1313-----------|

just a change in the last part, sorry if its hard to read i copied and pasted

0 reply
Farether 113 May 29, 2007 05:43 AM

ok, thanks for the correction, that was the part I knew it wasn't 100% accurate. I'll update it right now

0 reply
fireryfingers 10 Jun 04, 2008 05:35 PM

nice, the solo sounds cool but i kinda wish RA made it longer. anyways great tab 5 stars.

guest
You may want to rate the tab now too:
select rating
Wanna post a correction for this tab? Suggest correction