Oops, an error
Loading. Please wait.
We have an official Chamber The Cartridge tab made by UG professional guitarists. Check out the tab »
×
2,659 views 3 this week
1 commentread comment
1 2 3 4 5
1 last vote to show rating
add to favorites
×
Save as Personal and add changes to this tab that will be seen only by you. Learn more ›
×
You can save this tab as Personal to edit and correct it or add notes. All changes will be seen only by you. Learn more »
launch autoscroll
font size
0
reset
guitar tuner
edit
Autoscroll
slow
fast
+/-
esc
set tempo
stop
Artist - Rise Against
Album - The Sufferer And The Witness
Track - Chamber The Cartridge
Tuning - Half Step Down (D#G#C#F#/EbAbDbGb)

NB - (n) notes inside parentheses are optional
   - where two 'o' are used, repeat between (if repeat is more than x2, it will be 
ABOVE bar)

Intro
F#|--------------------------------|--------------------------------|
C#|o-------------------------------|--------------------------------|
G#|o-4-----------------------------|-0------------------------------|
D#|--------------------------------|--------------------------------|
                                                                  x4
F#|--------------------------------|--------------------------------|
C#|--------------------------------|-------------------------------o|
G#|--------------------------------|-2-----------------------------o|
D#|-0------------------------------|--------------------------------|

F#|--------------------------------|
C#|--------------------------------|
G#|-4------------------------------|
D#|--------------------------------|

Verse 1                                                           x4
F#|--------------------------------|--------------------------------|
C#|o-------------------------------|2---2-2---2-2-2----------------o|
G#|o4---4-4---4-4-4-4---4-4---4-4-4|----------------2---2-2---2-2-2o|
D#|--------------------------------|--------------------------------|

Pre Chorus                      x3
F#|--------------------------------|--------------------------------|
C#|o------------------------------o|--------------------------------|
G#|o------------------------------o|--------------------------------|
D#|-4---4-4---4-5---4---4-4---4-5--|-2------------------------------|
                                 x3
F#|--------------------------------|--------------------------------|
C#|o------------------------------o|--------------------------------|
G#|o------------------------------o|-4-------0---------------2------|
D#|-4---4-4---4-5---4---4-4---4-5--|-----------------0--------------|

Chorus
F#|--------------------------------|--------------------------------|
C#|--------------------------------|--------------------------------|
G#|-4---4-4---4-4-4-4---4-4---4-4-4|-0---0-0---0-0-0-0---0-0---0-0-0|
D#|--------------------------------|--------------------------------|

F#|--------------------------------|--------------------------------|
C#|--------------------------------|--------------------------------|
G#|--------------------------------|-2---2-2---2-2-2-2---2-2---2-2-2|
D#|-0---0-0---0-0-0-0---0-0---0-0-0|--------------------------------|

F#|--------------------------------|--------------------------------|
C#|--------------------------------|--------------------------------|
G#|-4---4-4---4-4-4-4---4-4---4-4-4|-0---0-0---0-0-0-0---0-0---0-0-0|
D#|--------------------------------|--------------------------------|

F#|--------------------------------|--------------------------------|
C#|-2---2-2---2-2-2-2---2-2---2-2-2|--------------------------------|
G#|--------------------------------|-2---2-2---2-2-2-2---2-2---2-2-2|
D#|--------------------------------|--------------------------------|

F#|-----------------1--------------|--------------------------------|
C#|---------------------4---2---1--|--------------------------------|
G#|-4---4-4---4-4-4----------------|-0---0-0---0-0-0-0---0-0---0-0-0|
D#|--------------------------------|--------------------------------|

F#|-------------------------1---2--|-4---4-4---4-4-4-4---4-4---4-4-4|
C#|-2---2-2---2-2-2-2---4----------|--------------------------------|
G#|--------------------------------|--------------------------------|
D#|--------------------------------|--------------------------------|

F#|--------------------------------|--------------------------------|
C#|--------------------------------|--------------------------------|
G#|-4---4-4---4-4-4-4---4-4---4-4-4|-0---0-0---0-0-0-0---0-0---0-0-0|
D#|--------------------------------|--------------------------------|

F#|--------------------------------|--------------------------------|
C#|--------------------------------|--------------------------------|
G#|--------------------------------|-2---2-2---2-2-2-2---2-2---2-2-2|
D#|-0---0-0---0-0-0-0---0-0---0-0-0|--------------------------------|

F#|--------------------------------|-6---6-6---6-6-6-6---6-6---6-6-6|
C#|--------------------------------|--------------------------------|
G#|-4---4-4---4-4-4-4---4-4---4-4-4|--------------------------------|
D#|--------------------------------|--------------------------------|

Verse 2                                                           x4
F#|--------------------------------|--------------------------------|
C#|o-------------------------------|2---2-2---2-2-2----------------o|
G#|o4---4-4---4-4-4-4---4-4---4-4-4|----------------2---2-2---2-2-2o|
D#|--------------------------------|--------------------------------|

Pre Chorus                      x3
F#|--------------------------------|--------------------------------|
C#|o------------------------------o|--------------------------------|
G#|o------------------------------o|--------------------------------|
D#|-4---4-4---4-5---4---4-4---4-5--|-2------------------------------|
                                 x3
F#|--------------------------------|--------------------------------|
C#|o------------------------------o|--------------------------------|
G#|o------------------------------o|-4-------0---------------2------|
D#|-4---4-4---4-5---4---4-4---4-5--|-----------------0--------------|

Chorus
F#|--------------------------------|--------------------------------|
C#|--------------------------------|--------------------------------|
G#|-4---4-4---4-4-4-4---4-4---4-4-4|-0---0-0---0-0-0-0---0-0---0-0-0|
D#|--------------------------------|--------------------------------|

F#|--------------------------------|--------------------------------|
C#|--------------------------------|--------------------------------|
G#|--------------------------------|-2---2-2---2-2-2-2---2-2---2-2-2|
D#|-0---0-0---0-0-0-0---0-0---0-0-0|--------------------------------|

F#|--------------------------------|--------------------------------|
C#|--------------------------------|--------------------------------|
G#|-4---4-4---4-4-4-4---4-4---4-4-4|-0---0-0---0-0-0-0---0-0---0-0-0|
D#|--------------------------------|--------------------------------|

F#|--------------------------------|--------------------------------|
C#|-2---2-2---2-2-2-2---2-2---2-2-2|--------------------------------|
G#|--------------------------------|-2---2-2---2-2-2-2---2-2---2-2-2|
D#|--------------------------------|--------------------------------|

F#|-----------------1--------------|--------------------------------|
C#|---------------------4---2---1--|--------------------------------|
G#|-4---4-4---4-4-4----------------|-0---0-0---0-0-0-0---0-0---0-0-0|
D#|--------------------------------|--------------------------------|

F#|-------------------------1---2--|-4---4-4---4-4-4-4---4-4---4-4-4|
C#|-2---2-2---2-2-2-2---4----------|--------------------------------|
G#|--------------------------------|--------------------------------|
D#|--------------------------------|--------------------------------|

F#|--------------------------------|--------------------------------|
C#|--------------------------------|--------------------------------|
G#|-4---4-4---4-4-4-4---4-4---4-4-4|-0---0-0---0-0-0-0---0-0---0-0-0|
D#|--------------------------------|--------------------------------|

F#|--------------------------------|--------------------------------|
C#|--------------------------------|--------------------------------|
G#|--------------------------------|-2---2-2---2-2-2-2---2-2---2-2-2|
D#|-0---0-0---0-0-0-0---0-0---0-0-0|--------------------------------|

F#|--------------------------------|--------------------------------|
C#|--------------------------------|--------------------------------|
G#|-4------------------------------|--------------------------------|
D#|--------------------------------|--------------------------------|

F#|--------------------------------|--------------------------------|
C#|--------------------------------|--------------------------------|
G#|--------------------------------|--------------------------------|
D#|--------------------------------|--------------------------------|

Bridge
F#|--------------------------------|--------------------------------|
C#|o-------------------------------|-------------------------------o|
G#|o-------------------------------|-------------------------------o|
D#|--------------------------------|--------------------------------|

F#|--------------------------------|--------------------------------|
C#|--------------------------------|--------------------------------|
G#|-4------------------------------|--------------------------------|
D#|--------------------------------|--------------------------------|

F#|--------------------------------|--------------------------------|
C#|--------------------------------|-2------------------------------|
G#|--------------------------------|------2----0--------------------|
D#|--------------------------------|----------------0----2----4-----|

F#|--------------------------------|--------------------------------|
C#|o-------------------------------|-2---2---2---2------------------|
G#|o4---4---4---4---4---4---4---4--|-----------------2---2---2---2--|
D#|--------------------------------|--------------------------------|

F#|--------------------------------|--------------------------------|
C#|--------------------------------|-2---2---2---2---4---4---4---4--|
G#|--------------------------------|--------------------------------|
D#|-2---2---2---2---2---2---2---2--|--------------------------------|

F#|--------------------------------|--------------------------------|
C#|--------------------------------|-2---2---2---2------------------|
G#|-4---4---4---4---4---4---4---4--|-----------------2---2---2---2--|
D#|--------------------------------|--------------------------------|

F#|--------------------------------|--------------------------------|
C#|--------------------------------|-2-----------------------------o|
G#|--------------------------------|------2----0-------------------o|
D#|-2---2---2---2---2---2---2---2--|----------------0----2----4-----|

F#|--------------------------------|--------------------------------|
C#|o-------------------------------|--------------------------------|
G#|o-4-----------------------------|-0------------------------------|
D#|--------------------------------|--------------------------------|
                                                                  x2
F#|--------------------------------|--------------------------------|
C#|--------------------------------|-------------------------------o|
G#|--------------------------------|-2-----------------------------o|
D#|-0------------------------------|--------------------------------|

Final Chorus
F#|--------------------------------|--------------------------------|
C#|--------------------------------|--------------------------------|
G#|-4---4-4---4-4-4-4---4-4---4-4-4|-0---0-0---0-0-0-0---0-0---0-0-0|
D#|--------------------------------|--------------------------------|

F#|--------------------------------|--------------------------------|
C#|--------------------------------|--------------------------------|
G#|--------------------------------|-2---2-2---2-2-2-2---2-2---2-2-2|
D#|-0---0-0---0-0-0-0---0-0---0-0-0|--------------------------------|

F#|-----------------1--------------|--------------------------------|
C#|---------------------4---2---1--|--------------------------------|
G#|-4---4-4---4-4-4----------------|-0---0-0---0-0-0-0---0-0---0-0-0|
D#|--------------------------------|--------------------------------|

F#|-------------------------1---2--|-4---4-4---4-4-4-4---4-4---4-4-4|
C#|-2---2-2---2-2-2-2---4----------|--------------------------------|
G#|--------------------------------|--------------------------------|
D#|--------------------------------|--------------------------------|

F#|--------------------------------|--------------------------------|
C#|--------------------------------|--------------------------------|
G#|-4---4-4---4-4-4-4---4-4---4-4-4|-0---0-0---0-0-0-0---0-0---0-0-0|
D#|--------------------------------|--------------------------------|

F#|--------------------------------|--------------------------------|
C#|--------------------------------|--------------------------------|
G#|--------------------------------|-2---2-2---2-2-2-2---2-2---2-2-2|
D#|-0---0-0---0-0-0-0---0-0---0-0-0|--------------------------------|

F#|--------------------------------|
C#|--------------------------------|
G#|-4------------------------------|
D#|--------------------------------|


            
            
Suggest correction
Creating personal tab
Creating personal tab
You can edit any tab online and save it as your Personal.

You can edit, replace or remove any tab part or add personal notes – all changes will be seen only by you.

Personal tabs can be accessed anytime from any device, even offline.
Learn more »
Give kudos to tab author, rate the tab!
1 2 3 4 5
comments
print report bad tab
1 comment total.
+1 reply
telenofunken 101 Feb 05, 2014 02:15 PM

perfect you

guest
You may want to rate the tab now too:
select rating
Wanna post a correction for this tab? Suggest correction