Oops, an error
Loading. Please wait.
We have an official Collapse tab made by UG professional guitarists. Check out the tab »
×
10,483 views 6 this week
1 commentread comment
1 2 3 4 5
x 3
add to favorites
×
Save as Personal and add changes to this tab that will be seen only by you. Learn more ›
×
You can save this tab as Personal to edit and correct it or add notes. All changes will be seen only by you. Learn more »
launch autoscroll
font size
0
reset
guitar tuner
edit
Autoscroll
slow
fast
+/-
esc
set tempo
stop
Collapse (Post-Amerika)                             
Rise Against
Joe Principe - Bass 

Intro - 8 Bars then:

Gb|-----------------------------3----|-----------------5---5-5---5-5----|
Db|-5-------------------5-5---5------|-3---3-3---3-3--------------------|
Ab|-----5-5---5-5---3----------------|----------------------------------|
Eb|----------------------------------|----------------------------------|
    1 + + + 2 + + + 3 + + + 4 + + +    1 + + + 2 + + + 3 + + + 4 + + +

Gb|-----------------------------3----|----------------------------------|
Db|-5-------------------5-5---5------|-3---3-3---3-3--------------------|
Ab|-----5-5---5-5---3----------------|-----------------3---3---3---3----|
Eb|----------------------------------|----------------------------------|
    1 + + + 2 + + + 3 + + + 4 + + +    1 + + + 2 + + + 3 + + + 4 + + +

Gb|-----------------------------3----|-----------------5---5-5---5-5----|
Db|-5-------------------5-5---5------|-3---3-3---3-3--------------------|
Ab|-----5-5---5-5---3----------------|----------------------------------|
Eb|----------------------------------|----------------------------------|
    1 + + + 2 + + + 3 + + + 4 + + +    1 + + + 2 + + + 3 + + + 4 + + +

Gb|-----------------------------3----|----------------------------------|
Db|-5-------------------5-5---5------|-3---3-3---3-3--------------------|
Ab|-----5-5---5-5---3----------------|-----------------3-3-3-3----------|
Eb|----------------------------------|----------------------------------|
    1 + + + 2 + + + 3 + + + 4 + + +    1 + + + 2 + + + 3 + + + 4 + + +


Gb|----------------------------------|----------------------------------|
Db|----------------------------------|----------------------------------|
Ab|-3-3-3-3---------3-3-3-3----------|-3-3-3-3---3-----5----------------|
Eb|----------------------------------|-------------3--------------------|
    1 + + + 2 + + + 3 + + + 4 + + +    1 + + + 2 + + + 3 + + + 4 + + +

Gb|----------------------------------|-----------------|
Db|----------------------------------|-----------------|
Ab|----------------------------------|-----3---5---3---|
Eb|-----------------3---5-------6----|-----------------|
    1 + + + 2 + + + 3 + + + 4 + + +    1 + + + 2 + + + 

Verse

Gb|----------------------------------|----------------------------------|
Db|----------------------------------|----------------------------------|
Ab|-5---5-5---5-5---5---5-5---5-5----|-5---5-5---5-5---5---5-5---5-5----|
Eb|----------------------------------|----------------------------------|
    1 + + + 2 + + + 3 + + + 4 + + +    1 + + + 2 + + + 3 + + + 4 + + +

Gb|----------------------------------|----------------------------------|
Db|----------------------------------|----------------------------------|
Ab|-1---1-1---1-1---3---0-0---0-0----|-5---5-5---5-5---5---5-5---5------|
Eb|----------------------------------|-----------------------------3----|
    1 + + + 2 + + + 3 + + + 4 + + +    1 + + + 2 + + + 3 + + + 4 + + +

Gb|----------------------------------|----------------------------------|
Db|----------------------------------|----------------------------------|
Ab|-5---5-5---5-5---5---5-5---5-5----|-5---5-5---5-5---5---5-5---5-5----|
Eb|----------------------------------|----------------------------------|
    1 + + + 2 + + + 3 + + + 4 + + +    1 + + + 2 + + + 3 + + + 4 + + +

Gb|----------------------------------|----------------------------------|
Db|----------------------------------|----------------------------------|
Ab|-1---1-1---1-1---3---0-0---0-0----|-5---5-5-5-5-5-5-5-5-5-5-5-5-5-5--|
Eb|----------------------------------|----------------------------------|
    1 + + + 2 + + + 3 + + + 4 + + +    1 + + + 2 + + + 3 + + + 4 + + +

Pre-Chorus

Gb|----------------------------------|----------------------------------|
Db|----------------------------------|----------------------------------|
Ab|-1---1-1---1-1---1---1-1---1-1----|----------------------------------|
Eb|----------------------------------|-3---3-3---3-3---3---3-3---3------|
    1 + + + 2 + + + 3 + + + 4 + + +    1 + + + 2 + + + 3 + + + 4 + + +

Gb|----------------------------------|----------------------------------|
Db|----------------------------------|----------------------------------|
Ab|-5---5-5---5-5---5---5-5---5-5----|-0---0-0---0-0---0---0---0---0----|
Eb|----------------------------------|----------------------------------|
    1 + + + 2 + + + 3 + + + 4 + + +    1 + + + 2 + + + 3 + + + 4 + + +

Gb|----------------------------------|----------------------------------|
Db|----------------------------------|----------------------------------|
Ab|-1---1-1---1-1---1---1-1---1-1----|-3-3-3-3-3-3-3-3-3-3-3-3-3-3-3-3--|
Eb|----------------------------------|----------------------------------|
    1 + + + 2 + + + 3 + + + 4 + + +    1 + + + 2 + + + 3 + + + 4 + + +

Chorus

Gb|-----------------------------3----|-----------------5---5-5---5-5----|
Db|-5-------------------5-5---5------|-3---3-3---3-3--------------------|
Ab|-----5-5---5-5---3----------------|----------------------------------|
Eb|----------------------------------|----------------------------------|
    1 + + + 2 + + + 3 + + + 4 + + +    1 + + + 2 + + + 3 + + + 4 + + +

Gb|-----------------------------3----|----------------------------------|
Db|-5-------------------5-5---5------|-3---3-3---3-3--------------------|
Ab|-----5-5---5-5---3----------------|-----------------3---3---3---3----|
Eb|----------------------------------|----------------------------------|
    1 + + + 2 + + + 3 + + + 4 + + +    1 + + + 2 + + + 3 + + + 4 + + +

Gb|-----------------------------3----|-----------------5---5-5---5-5----|
Db|-5-------------------5-5---5------|-3---3-3---3-3--------------------|
Ab|-----5-5---5-5---3----------------|----------------------------------|
Eb|----------------------------------|----------------------------------|
    1 + + + 2 + + + 3 + + + 4 + + +    1 + + + 2 + + + 3 + + + 4 + + +

Gb|-----------------------------3----|-----------------5----------------|
Db|-5-------------------5-5---5------|-3---3-3---3-3-------5-5-5-5-5\---|
Ab|-----5-5---5-5---3----------------|----------------------------------|
Eb|----------------------------------|----------------------------------|
    1 + + + 2 + + + 3 + + + 4 + + +    1 + + + 2 + + + 3 + + + 4 + + +

Interlude

Gb|----------------------------------|----------------------------------|
Db|-0--------------------------------|----------------------------------|
Ab|----------------------------------|---------------------3---5---3----|
Eb|----------------------------------|-3---5-5---5-6--------------------|
    1 + + + 2 + + + 3 + + + 4 + + +    1 + + + 2 + + + 3 + + + 4 + + +

Verse

Gb|----------------------------------|----------------------------------|
Db|----------------------------------|----------------------------------|
Ab|-5--------------------------------|----------------------------------|
Eb|----------------------------------|----------------------------------|
    1 + + + 2 + + + 3 + + + 4 + + +    1 + + + 2 + + + 3 + + + 4 + + +

Gb|----------------------------------|----------------------------------|
Db|----------------------------------|----------------------------------|
Ab|-1---1-1---1-1---3---0-0---0-0----|-5---5-5---5-5---5---5-5---5------|
Eb|----------------------------------|-----------------------------3----|
    1 + + + 2 + + + 3 + + + 4 + + +    1 + + + 2 + + + 3 + + + 4 + + +

Gb|----------------------------------|----------------------------------|
Db|----------------------------------|----------------------------------|
Ab|-5---5-5---5-5---5---5-5---5------|-5---5-5---5-5---5---5-5---5-5----|
Eb|-----------------------------3----|----------------------------------|
    1 + + + 2 + + + 3 + + + 4 + + +    1 + + + 2 + + + 3 + + + 4 + + +

Gb|----------------------------------|----------------------------------|
Db|----------------------------------|----------------------------------|
Ab|-1---1-1---1-1---3---0-0---0-0----|-5---5---5---5///17\\-------------|
Eb|----------------------------------|----------------------------------|
    1 + + + 2 + + + 3 + + + 4 + + +    1 + + + 2 + + + 3 + + + 4 + + +

Pre-Chorus

Gb|----------------------------------|----------------------------------|
Db|----------------------------------|----------------------------------|
Ab|-1---1-1---1-1---1---1-1---1-1----|----------------------------------|
Eb|----------------------------------|-3---3-3---3-3---3---3-3---3------|
    1 + + + 2 + + + 3 + + + 4 + + +    1 + + + 2 + + + 3 + + + 4 + + +

Gb|----------------------------------|----------------------------------|
Db|----------------------------------|----------------------------------|
Ab|-5---5-5---5-5---5---5-5---5-5----|-0---0-0---0-0---0---0---0---0----|
Eb|----------------------------------|----------------------------------|
    1 + + + 2 + + + 3 + + + 4 + + +    1 + + + 2 + + + 3 + + + 4 + + +

Gb|----------------------------------|----------------------------------|
Db|----------------------------------|----------------------------------|
Ab|-1---1-1---1-1---1---1-1---1-1----|-3-3-3-3-3-3-3-3/15151515151515---|
Eb|----------------------------------|----------------------------------|
    1 + + + 2 + + + 3 + + + 4 + + +    1 + + + 2 + + + 3 + + + 4 + + +

Chorus

Gb|-----------------------------3----|-----------------5---5-5---5-5----|
Db|-5-------------------5-5---5------|-3---3-3---3-3--------------------|
Ab|-----5-5---5-5---3----------------|----------------------------------|
Eb|----------------------------------|----------------------------------|
    1 + + + 2 + + + 3 + + + 4 + + +    1 + + + 2 + + + 3 + + + 4 + + +

Gb|-----------------------------3----|----------------------------------|
Db|-5-------------------5-5---5------|-3---3-3---3-3--------------------|
Ab|-----5-5---5-5---3----------------|-----------------3---3-3---3-3----|
Eb|----------------------------------|----------------------------------|
    1 + + + 2 + + + 3 + + + 4 + + +    1 + + + 2 + + + 3 + + + 4 + + +

Gb|-----------------------------3----|-----------------5---5-5---5-5----|
Db|-5-------------------5-5---5------|-3---3-3---3-3--------------------|
Ab|-----5-5---5-5---3----------------|----------------------------------|
Eb|----------------------------------|----------------------------------|
    1 + + + 2 + + + 3 + + + 4 + + +    1 + + + 2 + + + 3 + + + 4 + + +

Gb|-----------------------------3----|----------------------------------|
Db|-5-------------------5-5---5------|-3---3---3---3--------------------|
Ab|-----5-5---5-5---3----------------|-----------------3---3---3---3----|
Eb|----------------------------------|----------------------------------|
    1 + + + 2 + + + 3 + + + 4 + + +    1 + + + 2 + + + 3 + + + 4 + + +


Interlude

Gb|----------------------------------|----------------------------------|
Db|-------------3---3----------------|----------------------------------|
Ab|-5---5---5-----------5---5---3----|-1---1---1------------------------|
Eb|----------------------------------|-------------3---3---3---3--------|
    1 + + + 2 + + + 3 + + + 4 + + +    1 + + + 2 + + + 3 + + + 4 + + +

Gb|----------------------------------|----------------------------------|
Db|-------------3---3----------------|----------------------------------|
Ab|-5---5---5-----------5---5---3----|-1---1---1---3---3---3---3---5----|
Eb|----------------------------------|----------------------------------|
    1 + + + 2 + + + 3 + + + 4 + + +    1 + + + 2 + + + 3 + + + 4 + + +

Gb|----------------------------------|----------------------------------|
Db|-------------3---3----------------|----------------------------------|
Ab|-5---5---5-----------5---5---3----|-1---1---1-------------------3----|
Eb|----------------------------------|-------------3---3---3---3--------|
    1 + + + 2 + + + 3 + + + 4 + + +    1 + + + 2 + + + 3 + + + 4 + + +

Gb|----------------------------------|----------------------------------|
Db|----------------------------------|----------------------------------|
Ab|-3---3---3---3-----------0---3----|-3---3---3---3---3---3---3---3----|
Eb|-----------------1---3------------|----------------------------------|
    1 + + + 2 + + + 3 + + + 4 + + +    1 + + + 2 + + + 3 + + + 4 + + +

Bridge

Gb|----------------------------------|----------------------------------|
Db|-------------3---3----------------|----------------------------------|
Ab|-5---5---5-----------5---5---3----|-1---1---1-------------------5----|
Eb|----------------------------------|-------------3---3---3---3--------|
    1 + + + 2 + + + 3 + + + 4 + + +    1 + + + 2 + + + 3 + + + 4 + + +

Gb|----------------------------------|----------------------------------|
Db|-------------3---3----------------|----------------------------------|
Ab|-5---5---5-----------5---5---3----|-1---1---1---3---3---3---3---5----|
Eb|----------------------------------|----------------------------------|
    1 + + + 2 + + + 3 + + + 4 + + +    1 + + + 2 + + + 3 + + + 4 + + +

Gb|----------------------------------|----------------------------------|
Db|-------------3---3----------------|----------------------------------|
Ab|-5---5---5-----------5---5---3----|-1---1---1-------------------3----|
Eb|----------------------------------|-------------3---3---3---3--------|
    1 + + + 2 + + + 3 + + + 4 + + +    1 + + + 2 + + + 3 + + + 4 + + +

Gb|----------------------------------|----------------------------------|
Db|----------------------------------|----------------------------------|
Ab|-3---3---3---3---3---3---3---3////|/15--15--15--15--15--15--15--15---|
Eb|----------------------------------|----------------------------------|
    1 + + + 2 + + + 3 + + + 4 + + +    1 + + + 2 + + + 3 + + + 4 + + +

Gb|----------------------------------|----------------------------------|
Db|-------------3---3----------------|----------------------------------|
Ab|-5---5---5-----------5---5---3----|-1---1---1-------------------5----|
Eb|----------------------------------|-------------3---3---3---3--------|
    1 + + + 2 + + + 3 + + + 4 + + +    1 + + + 2 + + + 3 + + + 4 + + +

Gb|----------------------------------|----------------------------------|
Db|-------------3---3----------------|----------------------------------|
Ab|-5---5---5-----------5---5---3----|-1---1---1---3---3---3---3---5----|
Eb|----------------------------------|----------------------------------|
    1 + + + 2 + + + 3 + + + 4 + + +    1 + + + 2 + + + 3 + + + 4 + + +

Gb|----------------------------------|----------------------------------|
Db|-------------3---3----------------|----------------------------------|
Ab|-5---5---5-----------5---5---3----|-1---1---1------------------------|
Eb|----------------------------------|-------------3---3---3---3---3----|
    1 + + + 2 + + + 3 + + + 4 + + +    1 + + + 2 + + + 3 + + + 4 + + +

Interlude

Gb|----------------------------------|----------------------------------|
Db|----------------------------------|----------------------------------|
Ab|----------------------------------|-3---3---3---3---0---0---0---0----|
Eb|-1---1---1---1---1---1---1---1----|----------------------------------|
    1 + + + 2 + + + 3 + + + 4 + + +    1 + + + 2 + + + 3 + + + 4 + + +

Gb|----------------------------------|----------------------------------|
Db|----------------------------------|----------------------------------|
Ab|-1---1---1---1---1---1---1---1----|----------------------------------|
Eb|----------------------------------|-3---3---3---3---3---3---3---3----|
    1 + + + 2 + + + 3 + + + 4 + + +    1 + + + 2 + + + 3 + + + 4 + + +

Gb|----------------------------------|----------------------------------|
Db|----------------------------------|----------------------------------|
Ab|-5---5---5---5---5---5---5---5----|-5---5---5---5---5---5---5---5----|
Eb|----------------------------------|----------------------------------|
    1 + + + 2 + + + 3 + + + 4 + + +    1 + + + 2 + + + 3 + + + 4 + + +

Gb|----------------------------------|----------------------------------|
Db|----------------------------------|----------------------------------|
Ab|-1---1---1---1---1---1---1---1----|----------------------------------|
Eb|----------------------------------|-3---3---3---3---3---3---3---3----|
    1 + + + 2 + + + 3 + + + 4 + + +    1 + + + 2 + + + 3 + + + 4 + + +

Gb|----------------------------------|----------------------------------|
Db|----------------------------------|-------------3-------5------------|
Ab|-5---5---5---5---5---5---5---5----|-5---7-----------------------3----|
Eb|----------------------------------|----------------------------------|
    1 + + + 2 + + + 3 + + + 4 + + +    1 + + + 2 + + + 3 + + + 4 + + +

Gb|----------------------------------|----------------------------------|
Db|----------------------------------|----------------------------------|
Ab|-1-----1-----1---1----------------|----------------------------------|
Eb|----------------------------------|-3---3---3---3---3---3---3---3----|
    1 + + + 2 + + + 3 + + + 4 + + +    1 + + + 2 + + + 3 + + + 4 + + +

Gb|----------------------------------|----------------------------------|
Db|----------------------------------|----------------------------------|
Ab|-5---5---5---5---5---5---5---5----|-0---0---0---0---0---0---0---0----|
Eb|----------------------------------|----------------------------------|
    1 + + + 2 + + + 3 + + + 4 + + +    1 + + + 2 + + + 3 + + + 4 + + +

Gb|----------------------------------|----------------------------------|
Db|----------------------------------|----------------------------------|
Ab|-1---1---1---1---1---1---1---1----|----------------------------------|
Eb|----------------------------------|-3---3---3---3---3---3---3---3----|
    1 + + + 2 + + + 3 + + + 4 + + +    1 + + + 2 + + + 3 + + + 4 + + +

Gb|----------------------------------|----------------------------------|
Db|----------------------------------|----------------------------------|
Ab|-5---5---5---5---5---5---5---5----|---------------------1-------3----|
Eb|----------------------------------|-1---3-------5--------------------|
    1 + + + 2 + + + 3 + + + 4 + + +    1 + + + 2 + + + 3 + + + 4 + + +

Gb|----------------------------------|----------------------------------|
Db|----------------------------------|----------------------------------|
Ab|-1-----1-----1---1----------------|----------------------------------|
Eb|----------------------------------|-3---3---3---3---3---3---3---3----|
    1 + + + 2 + + + 3 + + + 4 + + +    1 + + + 2 + + + 3 + + + 4 + + +

Gb|----------------------------------|----------------------------------|
Db|----------------------------------|----------------------------------|
Ab|-5-----5-----5---5----------------|-0---0---0---0---0---0---0---0----|
Eb|----------------------------------|----------------------------------|
    1 + + + 2 + + + 3 + + + 4 + + +    1 + + + 2 + + + 3 + + + 4 + + +

Gb|----------------------------------|----------------------------------|
Db|----------------------------------|----------------------------------|
Ab|-1-----1-----1---1-----1-----1----|-3---3---3---3---3---3---3---3----|
Eb|----------------------------------|----------------------------------|
    1 + + + 2 + + + 3 + + + 4 + + +    1 + + + 2 + + + 3 + + + 4 + + +

Gb|----------------------------------|
Db|----------------------------------|
Ab|-3--------------------------------|
Eb|----------------------------------|
    1 + + + 2 + + + 3 + + + 4 + + +   

Chorus

Gb|-----------------------------3----|-----------------5---5-5---5-5----|
Db|-5-------------------5-5---5------|-3---3-3---3-3--------------------|
Ab|-----5-5---5-5---3----------------|----------------------------------|
Eb|----------------------------------|----------------------------------|
    1 + + + 2 + + + 3 + + + 4 + + +    1 + + + 2 + + + 3 + + + 4 + + +

Gb|-----------------------------3----|----------------------------------|
Db|-5-------------------5-5---5------|-3---3-3---3-3--------------------|
Ab|-----5-5---5-5---3----------------|-----------------3---3-3-3-3-3-3--|
Eb|----------------------------------|----------------------------------|
    1 + + + 2 + + + 3 + + + 4 + + +    1 + + + 2 + + + 3 + + + 4 + + +

Gb|-----------------------------3----|-----------------5---5-5---5-5----|
Db|-5-------------------5-5---5------|-3---3-3---3-3--------------------|
Ab|-----5-5---5-5---3----------------|----------------------------------|
Eb|----------------------------------|----------------------------------|
    1 + + + 2 + + + 3 + + + 4 + + +    1 + + + 2 + + + 3 + + + 4 + + +

Gb|-----------------------------3----|----------------------------------|
Db|-5-------------------5-5---5------|-3---3-3---3-3--------------------|
Ab|-----5-5---5-5---3----------------|-----------------3-3-3-3-3--------|
Eb|----------------------------------|----------------------------------|
    1 + + + 2 + + + 3 + + + 4 + + +    1 + + + 2 + + + 3 + + + 4 + + +


Gb|----------------------------------|----------------------------------|
Db|----------------------------------|----------------------------------|
Ab|-3-3-3-3---------3-3-3-3----------|-3-3-3-3---------5~~~~------------|
Eb|----------------------------------|-------------3--------------------|
    1 + + + 2 + + + 3 + + + 4 + + +    1 + + + 2 + + + 3 + + + 4 + + +

            
            
Suggest correction
Creating personal tab
Creating personal tab
You can edit any tab online and save it as your Personal.

You can edit, replace or remove any tab part or add personal notes – all changes will be seen only by you.

Personal tabs can be accessed anytime from any device, even offline.
Learn more »
Give kudos to tab author, rate the tab!
1 2 3 4 5
comments
print report bad tab
1 comment total.
+2 reply
china_dweller 275 Dec 03, 2008 02:38 AM

nicely done

guest
You may want to rate the tab now too:
select rating
Wanna post a correction for this tab? Suggest correction