Oops, an error
Loading. Please wait.
We have an official Collapse tab made by UG professional guitarists. Check out the tab »
×
33,221 views 6 this week
4 commentsread comments
1 2 3 4 5
x 11
add to favorites
×
Save as Personal and add changes to this tab that will be seen only by you. Learn more ›
×
You can save this tab as Personal to edit and correct it or add notes. All changes will be seen only by you. Learn more »
launch autoscroll
font size
0
reset
how to read this tab
guitar tuner
edit
Autoscroll
slow
fast
+/-
esc
set tempo
stop
Author
-------------------------------------------------------------------------------
                           Collapse - Rise Against
-------------------------------------------------------------------------------
Tabbed by:Spacehead3
This is my first tab so...yeah.
I tried to get the solo as best I could,
but I know it's not totally right.
Let me know if you see anything that needs fixing.


Tuning:Standard

Intro
e|---------------------------------------------------------------------------|
B|---------------------------------------------------------------------------|
G|---------------------------------------------------------------------------|
D|---6-6-6--4-6-6--9-9-9--11-11-11--(x5)-------6-6-6--4-6-6--9-9-9--4444-----|
A|---4-4-4--2-4-4--7-7-7--9--9--9--------------4-4-4--2-4-4--7-7-7--2222-----|
E|---------------------------------------------------------------------------|
                                Verse I
e|----------------------------|----------------------------------------------|
B|----------------------------|----------------------------------------------|
G|----------------------------|----------------------------------------------|
D|4444--4444--4444--44--6--/--|--6------------------6------------------------|
A|2222--2222--2222--22--4-----|--4----7-7-7--9-6-6--4--(x2)------------------|
E|----------------------------|-------5-5-5--7-4-4---------------------------|
Pre-Chorus
e|---------------------------------------------------------------------------|
B|---------------------------------------------------------------------------|
G|---------------------------------------------------------------------------|
D|----6-6-6-6-6-6--4-4-4-4-4-4--6-6-6-6-6-6----------------------------------|
A|----4-4-4-4-4-4--2-2-2-2-2-2--4-4-4-4-4-4--6-6-6-6-6-6--7-7-7-7-7-7--------|
E|-------------------------------------------4-4-4-4-4-4--5-5-5-5-5-5--------|
                  Chorus
e|---------------|-----------------------------------------------------------|
B|---------------|-----------------------------------------------------------|
G|---------------|-----------------------------------------------------------|
D|---------------|----6-6-6--4-6-6--9-9-9--11-11-11--(x4)--6--/--------------|
A|----9-9-9-9-9--|----4-4-4--2-4-4--7-7-7--9--9--9---------4-----------------|
E|----7-7-7-7-7--|-----------------------------------------------------------|
Verse II
e|---------------------------------------------------------------------------|
B|---------------------------------------------------------------------------|
G|---------------------------------------------------------------------------|
D|----6----------------6--|--6--6-6--6--(x4)|---------------6----------------|
A|----4--7-7-7--9-6-6--4--|--4--4-4--4------|--7-7-7--9-6-6-4----------------|
E|-------5-5-5--7-4-4--------------------------5-5-5--7-4-4------------------|
Pre-Chorus                Chorus
e|----------------------|----------------------------------------------------|
B|----"--------------"--|----"--------------"--------------------------------|
G|-----SAME AS BEFORE---|-----SAME AS BEFORE---------------------------------|
D|----------------------|----------------------------------------------------|
A|----------------------|----------------------------------------------------|
E|----------------------|----------------------------------------------------|
Bridge I !-Play Twice-! (For those of you that don't know- you play Bridge I one time 
with the first ending,
THEN you play Bridge I again, but with the second ending...make sense?)
e|---------------------------------------------------------------------------|
B|---------------------------------------------------------------------------|
G|---------------------------------------------------------------------------|
D|----6-6-6--9-9--6-6-4----------------6-6-6--9-9--6-6--4--------------------|
A|----4-4-4--7-7--4-4-2--7-7-7-4----4--4-4-4--7-7--4-4--2--7-7-7--9----9-----|
E|-----------------------5-5-5-2----2----------------------5-5-5--7----7-----|
                                        First Ending
e|------------------------------------|--------------------------------------|
B|---------------------------------------------------------------------------|
G|------------------------------------|--------------------------------------|
D|----6-6-6--9-9--6-6--4-----------------------------------------------------|
A|----4-4-4--7-7--4-4--2--7-7-7--4-4--|----9-9-9-9--(x3)--9-9-9--------------|
E|------------------------5-5-5--2-2-------7-7-7-7--------7-7-7--------------|
       Second Ending     Solo I
e|----|---------------|--------------------------------4-0-2-----------------|
B|--------------------|------------------------------------------------------|
G|----|---------------|----9-8-4-2---2---6----9-8-4-2---------2---6----------|
D|---------9----11----|------------------------------------------------------|
A|----|----7----9-----|------------------------------------------------------|
E|--------------------|------------------------------------------------------|

e|----4-0--------------------------------------------------------------------|
B|--------2-2--9-10-10-10-10-10-10-10-9-9-9-9-9-9-7-7-7-5-5-5----------------|
G|---------------------------------------------------------------------------|
D|---------------------------------------------------------------------------|
A|---------------------------------------------------------------------------|
E|---------------------------------------------------------------------------|
Solo II
e|-------------12-12---------------------12-12--------------------------------------|
B|----9--10-10-------12-12--9-9-9--10-10-------12-12-(x2)As in play Solo II twice---|
G|----------------------------------------------------------------------------------|
D|----------------------------------------------------------------------------------|
A|----------------------------------------------------------------------------------|
E|----------------------------------------------------------------------------------|
Bridge II
e|---------------------------------------------------------------------------|
B|---------------------------------------------------------------------------|
G|---------------------------------------------------------------------------|
D|--------------------6-6-6-6------------------------------------------------|
A|----7-7-7-7----4----4-4-4-4----6----7-7-7-7-7-7--9-9-9-9-9-9-9-9-9---------|
E|----5-5-5-5----2---------------4----5-5-5-5-5-5--7-7-7-7-7-7-7-7-7---------|
Outro
e|---------------------------------------------------------------------------|
B|---------------------------------------------------------------------------|
G|---------------------------------------------------------------------------|
D|----6-6-6--4-6-6--9-9-9--11-11-11--(x3)----6-6-6--4-6-6--9-9-9-------------|
A|----4-4-4--2-4-4--7-7-7--9--9--9-----------4-4-4--2-4-4--7-7-7-------------|
E|---------------------------------------------------------------------------|

e|---------------------------------------------------------------------------|
B|---------------------------------------------------------------------------|
G|---------------------------------------------------------------------------|
D|----4444-(x4)---44--6------------------------------------------------------|
A|----2222--------22--4------------------------------------------------------|
E|---------------------------------------------------------------------------|

And that's it...Hope it wasn't too confusing.

| /  pick slide

| h  hammer-on
| p  pull-off
| ~  vibrato
| +  harmonic
| x  Mute note
===============================================================================

            
            
Suggest correction
Creating personal tab
Creating personal tab
You can edit any tab online and save it as your Personal.

You can edit, replace or remove any tab part or add personal notes – all changes will be seen only by you.

Personal tabs can be accessed anytime from any device, even offline.
Learn more »
comments
print report bad tab
4 comments total. Showing first comments.
0 reply
jwd724 173 Jan 05, 2009 12:53 PM

would you mind doing the lead version as well? all you've got is rhythm, excepting the solo of course. just thought i'd ask

0 reply
HxG 48 Feb 12, 2009 06:48 AM

well the intro solo is missing (it's part of the outro as well) an i guess the (main) solo isn't complete

0 reply
fenderbender15 10 Sep 07, 2009 07:30 PM

it was great. i give it a 5 star. keep it goin man.

guest
You may want to rate the tab now too:
select rating
Wanna post a correction for this tab? Suggest correction