Oops, an error
Loading. Please wait.
We have an official Dancing For Rain tab made by UG professional guitarists. Check out the tab »
×
478 views 3 this week
no commentswrite comment
1 2 3 4 5
1 last vote to show rating
add to favorites
×
Save as Personal and add changes to this tab that will be seen only by you. Learn more ›
×
You can save this tab as Personal to edit and correct it or add notes. All changes will be seen only by you. Learn more »
launch autoscroll
font size
0
reset
guitar tuner
edit
Autoscroll
slow
fast
+/-
esc
set tempo
stop
Tabbed by: Light

Hey guys! This is my 1st tab so dont blame me for mistakes! The song is pretty easy both 
to learn and to play! So...enjoy it!! :D
Tunning: D, A, D, G.

Intro/Verse
G|-------------------|  You play this 8 times BUT in the 8th time hold the
D|-------------------|  last note a bit longer. You will be able to hear it.
A|------44-1-22-1-444|
D|1--3-4-------------|

Chorus
G|-----------------------------------|
D|-----------------------------------|
A|------------------22222222-44444444|
D|11111111-44444444------------------|

G|---------------------------------|
D|---------------------------------|
A|------------------22222222-2-4444|
D|11111111-44444444-----------4----|


G|-----------------------------------|
D|-----------------------------------|
A|------------------22222222-44444444|
D|11111111-44444444------------------|

G|---------------------------------|
D|---------------------------------|
A|------------------22222222-2-4444|
D|11111111-44444444-----------4----|

Again...
G|-------------------|  You play this 8 times BUT in the 8th time hold the
D|-------------------|  last note a bit longer. You will be able to hear it.
A|------44-1-22-1-444|
D|1--3-4-------------|

And again...

Chorus
G|-----------------------------------|
D|-----------------------------------|
A|------------------22222222-44444444|
D|11111111-44444444------------------|

G|---------------------------------|
D|---------------------------------|
A|------------------22222222-2-4444|
D|11111111-44444444-----------4----|


G|-----------------------------------|
D|-----------------------------------|
A|------------------22222222-44444444|
D|11111111-44444444------------------|

G|-------------------------------------|
D|-------------------------------------|
A|------------------22222222-2-4444----|
D|11111111-44444444-----------4-----1~~|

Wait for the little guitar solo to end and then:
G|---------------------------------| 4 times
D|---------------------------------|
A|--------1111111-444444-1-222222-1|
D|1111111--------------------------|

And then again...
Chorus
G|-----------------------------------|
D|-----------------------------------|
A|------------------22222222-44444444|
D|11111111-44444444------------------|

G|---------------------------------|
D|---------------------------------|
A|------------------22222222-2-4444|
D|11111111-44444444-----------4----|


G|-----------------------------------|
D|-----------------------------------|
A|------------------22222222-44444444|
D|11111111-44444444------------------|

G|-----------------------------------|
D|-----------------------------------|
A|------------------22222222-2-4444--|
D|11111111-44444444-----------4-----1|

After this last chorus(when Tim goes nuts and screams)you play this:
G|-----------|
D|-----------|
A|-222-2-4444| 3 times
D|------4----|

G|--------------|
D|--------------|
A|-222-2-4444---|
D|------4-----1~|

            
            
Suggest correction
Creating personal tab
Creating personal tab
You can edit any tab online and save it as your Personal.

You can edit, replace or remove any tab part or add personal notes – all changes will be seen only by you.

Personal tabs can be accessed anytime from any device, even offline.
Learn more »
Give kudos to tab author, rate the tab!
1 2 3 4 5
comments
print report bad tab
guest
You may want to rate the tab now too:
select rating
Wanna post a correction for this tab? Suggest correction