Oops, an error
Loading. Please wait.
We have an official Death Blossoms tab made by UG professional guitarists. Check out the tab »
×
698 views 1 this week
3 commentsread comments
1 2 3 4 5
1 last vote to show rating
add to favorites
×
Save as Personal and add changes to this tab that will be seen only by you. Learn more ›
×
You can save this tab as Personal to edit and correct it or add notes. All changes will be seen only by you. Learn more »
launch autoscroll
font size
0
reset
how to read this tab
guitar tuner
backing track
0:00
0:00
edit
Autoscroll
slow
fast
+/-
esc
set tempo
stop
Author
Difficulty
My last tab was REALLY BAD, so I re-made it.

INTRO

|---------------|
|---------------|
|----------9----|
|----------9----|Repeat chord
|----------7----|
|---------------|






VERSE 1

|----------------------------|
|----------------------------|
|---77--555--999-------------|
|---77--555--999----7-7777---| X3
|---55--333--777----7-7777---|
|-------------------5-5555---|


FILL

                       
|---------------------------------------------------|
|---------------------------------------------------|
|----8888888888888—---11-11-11--10--10--9--9--8-----|
|----8888888888888----------------------------------|
|----6666666666666----------------------------------|
|---------------------------------------------------|

Repeat then move on to this:









CHORUS

|--------------------------------------------------|
|--------------------------------------------------|
|---14-14--11--11-11---16-=16-16---18-18-18-18-18-/| 
|---X--X---X---X--X----X---X--X----X--X--X--X--X--/| X3 * the / at the end 
|---12-12--9---9--9----14--14-14---16-16-16-16-16-/|      means slide into
|--------------------------------------------------|      the next repeat.



FILL

                       
|---------------------------------------------------|
|---------------------------------------------------|
|----8888888888888—---11-11-11--10--10--9--9--8-----|
|----8888888888888----------------------------------|
|----6666666666666----------------------------------|
|---------------------------------------------------|







VERSE 2


|--------------------------------------------------------------|
|--------------------------------------------------------------|
|----—---------------------------------------------------------| X3
|--------------------------------------------------------------| 
|--12-12-12-12-9-9-9-9-8-8-8-8-10-10-10-10--(8-8-8-8-8-8-8-8-8)| 
|--------------------------------------------------------------|
PM .  .  .  .  . . . . . . . . .  .  .  .    . . . . . . . . .

Add the notes in (Parentheses)on the 3rd and final repeat.


FILL

                       
|---------------------------------------------------|
|---------------------------------------------------|
|----8888888888888—---11-11-11--10--10--9--9--8-----|
|----8888888888888----------------------------------|
|----6666666666666----------------------------------|
|---------------------------------------------------|







VERSE 2 PT 2


|--------------------------------------|
|--------------------------------------|
|----—---------------------------------|
|--12-12---9-9---9-9---12-12-----------| X 3
|--11-11---7-7---8-8---10-10-----------|
|--------------------------------------|



FILL

                       
|---------------------------------------------------|
|---------------------------------------------------|
|----8888888888888—---11-11-11--10--10--9--9--8-----|
|----8888888888888----------------------------------|
|----6666666666666----------------------------------|
|---------------------------------------------------|





CHORUS

|--------------------------------------------------|
|--------------------------------------------------|
|---14-14--11--11-11---16-=16-16---18-18-18-18-18-/| 
|---X--X---X---X--X----X---X--X----X--X--X--X--X--/| X3 * the / at the end 
|---12-12--9---9--9----14--14-14---16-16-16-16-16-/|      means slide into
|--------------------------------------------------|      the next repeat.



FILL

                       
|---------------------------------------------------|
|---------------------------------------------------|
|----8888888888888—---11-11-11--10--10--9--9--8-----|
|----8888888888888----------------------------------|
|----6666666666666----------------------------------|
|---------------------------------------------------|







BRIDGE PT 1

|--------------------------------------|
|--------------------------------------|
|----—---------------------------------|
|--6-8-6-4-6-8-6-4-4-2~----------------|
|--6-8-6-4-6-8-6-4-4-2~----------------|
|--4-6-4-2-4-6-4-2-6-0~~---------------|







SOLO

E|-------------------------------------------------------------------------|
B|0-0-0-0-0-0-0-0-0-2-4-4-4-4-4-4-4-4-225-5-5-5-5-5-5-5-4-4-4-4-4-4-4-4-4-2|
G|-------------------------------------------------------------------------|
D|-------------------------------------------------------------------------|
A|-------------------------------------------------------------------------|
e|-------------------------------------------------------------------------|

E|-------------------------------------------------------------------------|
B|-------------------------------------------------------------------------|
G|-4-4-4-8-8-8-6--4-4-4-8-8-8-6--4-4-4-8-8-8-6--4-4-4-6-6-6-4--------------|
D|-x-x-x-x-x-x-x--x-x-x-x-x-x-x--x-x-x-x-x-x-x--x-x-x-x-x-x-x--------------|
A|-2-2-2-6-6-6-4--2-2-2-6-6-6-4--2-2-2-6-6-6-4--2-2-2-4-4-4-2--------------|
e|-------------------------------------------------------------------------|

E|-------------------------------------------------------------------------|
B|-------------------------------------------------------------------------|
G|-4-4-4-4-6-6-6-6-8-8-8-8-6--4-8-8-8-8-12-12-12-12-15-15-15-15-18-18-18-18|
D|-x-x-x-x-x-x-x-x-x-x-x-x-x--x-x-x-x-x--x--x--x--x--x--x--x--x--x--x--x--x|
A|-2-2-2-2-4-4-4-4-6-6-6-6-4--2-6-6-6-6-10-10-10-10-13-13-13-13-16-16-16-16|
e|-------------------------------------------------------------------------|

E|---|
B|---|
G|---|
D|-9-|
A|-x-|
e|-7-|

*************THANKS TO YesGuitarNubYes FOR THE SOLO****************






BRIDGE PART 2

|----------------------|
|----------------------|
|----------------------|
|---XXX-X-X-X----------|
|---XXX-x-x-x----------|
|---XXX-X-X-X----------|

|----------------------------|
|----------------------------|
|---77--555--999-------------|
|---77--555--999----7-7777---| X3
|---55--333--777----7-7777---|
|-------------------5-5555---|


FILL

                       
|---------------------------------------------------|
|---------------------------------------------------|
|----8888888888888—---11-11-11--10--10--9--9--8-----|
|----8888888888888----------------------------------|
|----6666666666666----------------------------------|
|---------------------------------------------------|

*****************REPEAT CHORUS AS NEEDED************************************





AND END WITH

|----------------------------------------|
|----------------------------------------|
|----—-----------------------------------|
|--6-8-6-4-6-8-6-4-4-2~~~----------------|
|--6-8-6-4-6-8-6-4-4-2~~~----------------|
|--4-6-4-2-4-6-4-2-6-0~~~----------------|

Hopefully he's cool with me "borrowing" the solo, Every body take it easy, and
ROCK ON!!!!

            
            
Suggest correction
Creating personal tab
Creating personal tab
You can edit any tab online and save it as your Personal.

You can edit, replace or remove any tab part or add personal notes – all changes will be seen only by you.

Personal tabs can be accessed anytime from any device, even offline.
Learn more »
Give kudos to tab author, rate the tab!
1 2 3 4 5
comments
print report bad tab
3 comments total.
0 reply
YesGuitarNubYes 281 Aug 03, 2009 09:39 AM

i guess no one can really tab it that good :( i thot mine was right but everyone who sees my vid on youtube or comments on my tab says it sucks...but they say the solo is good :) w/e n e ways thnx for not being a douche and taking credit for the solo...

0 reply
SashaRockinOut 79 Aug 18, 2009 08:31 PM

CHORUS

|--------------------------------------------------|
|--------------------------------------------------|
|---14-14--11--11-11---16-=16-16---14-14-14-14-14-/|
|---X--X---X---X--X----X---X--X----X--X--X--X--X--/|
|---12-12--9---9--9----14--14-14---12-12-12-12-12-/|
|--------------------------------------------------|

0 reply
SashaRockinOut 79 Aug 18, 2009 08:32 PM

anytime, i hate people that steal things and take credit

guest
You may want to rate the tab now too:
select rating
Wanna post a correction for this tab? Suggest correction