Oops, an error
Loading. Please wait.

Drones bass

version 3
version 3

Whole song

Interactive

9,759 views 15 this week
no commentswrite comment
1 2 3 4 5
x 6
add to favorites
×
Save as Personal and add changes to this tab that will be seen only by you. Learn more ›
×
You can save this tab as Personal to edit and correct it or add notes. All changes will be seen only by you. Learn more »
launch autoscroll
font size
0
reset
guitar tuner
edit
Autoscroll
slow
fast
+/-
esc
set tempo
stop
Author
Song: Drones
Artist: Rise Against
Album: The Sufferer & The Witness

This is the fastest, most complex and hardest song to tab on the whole album. There is
specific to mention though, except for the fact that the opening Eb note is held from the
song, Prayer Of The Refugee. The interlude is quite long (42 bars) but you should be 
to follow; I have made it as easy as possible. The notes are, as always, arranged
to the timing of the song. Use the font Courier New, size 9, to print this tab in order 
group lines of tab together. Enjoy!


INTRO    (0:00)

Gb|----------------|
Db|----------------|
Ab|-*--------------|
Eb|(0)~~~~~~~~~~~~~|

Gb|----------------|----------------|
Db|----------------|----------------|
Ab|----5h7---------|----5h7-----5---|
Eb|0-0-----0-0-3-3-|0-0-----3-3-----|  x7


VERSE 1   (0:22)

Gb|----------------|----------------|----------------|----------------|
Db|----------------|----------------|----------------|----------------|
Ab|----------------|----------------|----------------|----------------|
Eb|0-0-0-0-0-0-0-0-|0-0-0-0-0-0-0-0-|3-3-3-3-3-3-3-3-|5-5-5-5-5-5-5-5-|

Gb|----------------|----------------|----------------|----------------|
Db|----------------|----------------|----------------|----------------|
Ab|7-7-7-7-7-7-7-7-|7-7-7-7-7-5-----|----------------|5-5-5-5-5-5-5-5-|
Eb|----------------|------------7-5-|3-3-3-3-3-3-3-3-|----------------|

Gb|----------------|----------------|----------------|----------------|
Db|----------------|----------------|----------------|----------------|
Ab|----------------|----------------|----------------|----------------|
Eb|0-0-0-0-0-0-0-0-|0-0-0-0-0-0-0-0-|3-3-3-3-3-3-3-3-|5-5-5-5-5-5-5-5-|

Gb|----------------|----------------|----------------|----------------|
Db|----------------|----------------|----------------|----------------|
Ab|7-7-7-7-7-7-7-7-|7-7-7-7-7-5-----|----------------|5-5-5-5-5-5-2---|
Eb|----------------|------------7-5-|3-3-3-3-3-3-3-3-|----------------|

CHORUS 1   (0:40)

Gb|----------------|----------------|----------------|----------------|
Db|----------------|----------------|----------------|----------------|
Ab|3---3-3-3-3-3-3-|3-3-2-------3---|5---5-5-5-5-5-5-|5-5-5-5-5-5-5-5-|
Eb|----------------|--------5-5-----|----------------|----------------|

Gb|----------------|----------------|----------------|----------------|
Db|----------------|----------------|2-2-2-2---------|----------------|
Ab|2-2-2---2-2-2---|2-2-2---2-2-2---|--------5-5-5-5-|3-3-3-3-2-2-2-2-|
Eb|----------------|----------------|----------------|----------------|


Gb|----------------|----------------|----------------|----------------|
Db|----------------|----------------|----------------|----------------|
Ab|3---3-3-3-3-3-3-|3-3-2-------3---|5---5-5-5-5-5-5-|5-5-5-5-5-5-5-5-|
Eb|----------------|--------5-5-----|----------------|----------------|

Gb|----------------|----------------|----------------|----------------|
Db|----------------|----------------|2-2-2-2-2-2-2-2-|----------------|
Ab|2-2-2---2-2-2---|2-2-2---2-2-2---|----------------|5---------------|
Eb|----------------|----------------|----------------|----------------|

Gb|----------------|----------------|
Db|----------------|----------------|
Ab|----5h7---------|----5h7-----5---|
Eb|0-0-----0-0-3-3-|0-0-----3-3-----|  x3


VERSE 2   (1:06)  -> Play verse 1

CHORUS 2   (1:24)

Gb|----------------|----------------|----------------|----------------|
Db|----------------|----------------|----------------|----------------|
Ab|3---3-3-3-3-3-3-|3-3-2-------3---|5---5-5-5-5-5-5-|5-5-5-5-5-5-5-5-|
Eb|----------------|--------5-5-----|----------------|----------------|

Gb|----------------|----------------|----------------|----------------|
Db|----------------|----------------|2-2-2-2-4-4-4-4-|5-5-5-5-4-4-4-4-|
Ab|2-2-2---2-2-2---|2-2-2---2-2-2---|----------------|----------------|
Eb|----------------|----------------|----------------|----------------|

Gb|----------------|----------------|----------------|----------------|
Db|----------------|----------------|----------------|----------------|
Ab|3---3-3-3-3-3-3-|3-3-2-------3---|5---5-5-5-5-5-5-|5-5-5-5-5-5-5-5-|
Eb|----------------|--------5-5-----|----------------|----------------|

Gb|----------------|----------------|----------------|----------------|
Db|----------------|----------------|2-2-2-2-2-2-2-2-|----------------|
Ab|2-2-2---2-2-2---|2-2-2---2-2-2---|----------------|5-5-5-5-5-5-5-5-|
Eb|----------------|----------------|----------------|----------------|

Gb|----------------|----------------|
Db|----------------|----------------|
Ab|3-3-3-3-3-3-3-3-|3---------------|
Eb|----------------|----------------|


INTERLUDE   (1:45)

Gb|----------------|----------------|----------------|----------------|
Db|----------------|----------------|----------------|----------------|
Ab|----------------|------------3---|----------------|------------5---|
Eb|0---0---0---0---|0---0---0-------|3---3---3---3---|3---3---3-------|

Gb|----------------|----------------|----------------|----------------|
Db|----------------|----------------|----------------|----------------|
Ab|----------------|----------------|----------------|----------------|
Eb|5---5---5---5---|5---5---5---3---|0---0---0---0---|0---0---0---3---|

Gb|----------------|----------------|----------------|----------------|
Db|----------------|----------------|----------------|----------------|
Ab|----------------|------------3---|----------------|------------5---|
Eb|0---0---0---0---|0---0---0-------|3---3---3---3---|3---3---3-------|

Gb|----------------|----------------|----------------|----------------|
Db|----------------|----------------|----------------|----------------|
Ab|----------------|----------------|----------------|----------------|
Eb|5---5---5---5---|5---5---5---3---|0---0---0---0---|0---3~~~~~~~~~~~|

Gb|----------------|----------------|
Db|----------------|----------------|
Ab|----------------|----------------|
Eb|(3)~~~~~~~~~~~~~|(3)-------------|

Gb|----------------|----------------|----------------|----------------|
Db|----------------|----------------|----------------|----------------|
Ab|----------------|------------3-3-|----------------|------------5-5-|
Eb|0-0---0-0-0---0-|0-0---0-0-0-----|3-3---3-3-3---3-|3-3---3-3-3-----|

Gb|----------------|----------------|----------------|----------------|
Db|----------------|----------------|----------------|----------------|
Ab|----------------|----------------|----------------|----------------|
Eb|5-5---5-5-5---5-|5-5---5-5-5-3-3-|0-0---0-0-0---0-|0-0---0-0-0-----|


Gb|----------------|----------------|----------------|----------------|
Db|----------------|----------------|----------------|----------------|
Ab|----7-7-7-7-7-7-|7-7-7-7-7-7-7-7-|7-7-7-7-7-7-7-7-|7-7-7-7-7-7-7-7-|
Eb|0-0-------------|----------------|----------------|----------------|

Gb|----------------|----------------|----------------|----------------|
Db|----------------|----------------|----------------|----------------|
Ab|7-7-7-7-7-7-7-7-|7-7-7-7-7-7-7-7-|7-7-7-7-7-7-7-7-|7-7-7-7-7-7-7-7-|
Eb|----------------|----------------|----------------|----------------|

Gb|----------------|----------------|----------------|----------------|
Db|----------------|----------------|----------------|----------------|
Ab|--------7p5---5-|7-7-7-7---------|--------7p5---5-|7-7-7-7---------|
Eb|0-0-0-0-----7---|--------0-0-0-0-|0-0-0-0-----7---|--------5---7---|

Gb|----------------|----------------|----------------|----------------|
Db|----------------|----------------|----------------|----------------|
Ab|--------7p5---5-|7-7-7-7---------|----------------|7-7-7-7-7-7-2---|
Eb|0-0-0-0-----7---|--------0-0-0-0-|0-0-0-0-0-0-0-0-|----------------|


CHORUS 3   (2:31)

Gb|----------------|----------------|----------------|----------------|
Db|----------------|----------------|----------------|----------------|
Ab|3---3-3-3-3-3-3-|3-3-2-------3---|5---5-5-5-5-5-5-|5-5-5-5-5-5-5-5-|
Eb|----------------|--------5-5-----|----------------|----------------|

Gb|----------------|----------------|----------------|----------------|
Db|----------------|----------------|2-2-2-2-4-4-4-4-|5-5-5-5-4-4-4-4-|
Ab|2-2-2---2-2-2---|2-2-2---2-2-2---|----------------|----------------|
Eb|----------------|----------------|----------------|----------------|

Gb|----------------|----------------|----------------|----------------|
Db|----------------|----------------|----------------|----------------|
Ab|3---3-3-3-3-3-3-|3-3-2-------3---|5---5-5-5-5-5-5-|5-5-5-5-5-5-5-5-|
Eb|----------------|--------5-5-----|----------------|----------------|

Gb|----------------|----------------|----------------|----------------|
Db|----------------|----------------|2---------------|----------------|
Ab|2-2-2---2-2-2---|2-2-2---2-2-2---|----------------|5~~~~~~~~~~~~~~~|
Eb|----------------|----------------|----------------|----------------|

Gb|----------------|----------------|
Db|----------------|----------------|
Ab|----5h7---------|----5h7-----5---|
Eb|0-0-----0-0-3-3-|0-0-----3-3-----|  x3

Gb|----------------|
Db|----------------|
Ab|----------------|
Eb|0---------------|    -3:01


Symbol Legend:

*    = Fermata - pause; hold not for longer than its original value
(0)  = Let note ring into next bar
~    = Let note ring
h    = Hammer on
x7   = Play this section seven times
p    = Pull off

That’s it. Any questions, comments, suggestions or corrections would be appreciated.

            
            
Suggest correction
Creating personal tab
Creating personal tab
You can edit any tab online and save it as your Personal.

You can edit, replace or remove any tab part or add personal notes – all changes will be seen only by you.

Personal tabs can be accessed anytime from any device, even offline.
Learn more »
comments
print report bad tab
guest
You may want to rate the tab now too:
select rating
Wanna post a correction for this tab? Suggest correction