Oops, an error
Loading. Please wait.
We have an official Entertainment tab made by UG professional guitarists. Check out the tab »
×
11,168 views 6 this week
2 commentsread comments
1 2 3 4 5
x 5
add to favorites
×
Save as Personal and add changes to this tab that will be seen only by you. Learn more ›
×
You can save this tab as Personal to edit and correct it or add notes. All changes will be seen only by you. Learn more »
launch autoscroll
font size
0
reset
guitar tuner
edit
Autoscroll
slow
fast
+/-
esc
set tempo
stop
Entertainment
Rise Against
Joe Principe - Bass

NB. I have always been an advocate for the "RISE AGAINST PLAYS IN Eb STANDARD" type people.
But I'm almost certain that Joe plays this in Standard.
It just doesn't make much sense for him to not.
If you have reason to believe otherwise (Video footage etc) please leave a comment as 
has really been annoying me.

INTRO

G|------------------|------------------|------------------|------------------|
D|------------------|------------------|------------------|------------------|
A|-2-2-2-2-2-2-2-2--|-2-2-2-2-2-2-2-2--|-2-2-2-2-2-2-2-2--|-2-2-2-2-2-2-2-2--|
E|------------------|------------------|------------------|------------------|
   1 + 2 + 3 + 4 +    1 + 2 + 3 + 4 +    1 + 2 + 3 + 4 +    1 + 2 + 3 + 4 +
   P.M. ---------------------------------------------------------------------|


G|------------------|------------------|------------------|------------------|
D|------------------|------------------|------------------|------------------|
A|-2-2-2-2-2-2-2-2--|-2-2-2-2-2-2-2-2--|-2-2-2-2-2-2-2-2--|-2-2-2-2-2-2-2-2--|
E|------------------|------------------|------------------|------------------|
   1 + 2 + 3 + 4 +    1 + 2 + 3 + 4 +    1 + 2 + 3 + 4 +    1 + 2 + 3 + 4 +
   P.M. ---------------------------------------------------------------------|


G|------------------|------------------|------------------|------------------|
D|------------------|------------------|------------------|------------------|
A|-5-5-5-5-5-5-5-5--|------------------|-2-2-2-2-2-2-2-2--|-2-2-2-2-2-2-2-2--|
E|------------------|-0-0-0-0-0-0-0-0--|------------------|------------------|
   1 + 2 + 3 + 4 +    1 + 2 + 3 + 4 +    1 + 2 + 3 + 4 +    1 + 2 + 3 + 4 +
   P.M. -------------------------------------------------R-E-L-E-A-S-E---P-M-|


G|------------------|------------------|------------------|------------------|
D|------------------|------------------|------------------|------------------|
A|-2-2-X-2---2-2-2--|-2-2-2-2-2-2-2-2--|-2-2-X-2---2-2-2--|-2-2-2-2-2-2-2-2--|
E|------------------|------------------|------------------|------------------|
   1 + 2 + 3 + 4 +    1 + 2 + 3 + 4 +    1 + 2 + 3 + 4 +    1 + 2 + 3 + 4 +

G|------------------|------------------|------------------|------------------|
D|------------------|------------------|------------------|------------------|
A|-5-5-X-5---5-5-5--|------------------|-2-2-2-2-2-2-2-2--|-2-2-2-2-2-2-2-2--|
E|------------------|-0-0-0-0-0-0-0-0--|------------------|------------------|
   1 + 2 + 3 + 4 +    1 + 2 + 3 + 4 +    1 + 2 + 3 + 4 +    1 + 2 + 3 + 4 +

VERSE

G|------------------|------------------|------------------|------------------|
D|------------------|------------------|------------------|------------------|
A|-2-2-2-2-2-2-2-2--|-2-2-2-2-2-2-2-2--|-2-2-2-2-2-2-2-2--|-2-2-2-2-2-2-2-2--|
E|------------------|------------------|------------------|------------------|
   1 + 2 + 3 + 4 +    1 + 2 + 3 + 4 +    1 + 2 + 3 + 4 +    1 + 2 + 3 + 4 +

G|------------------|------------------|------------------|------------------|
D|------------------|------------------|------------------|-------2-0-0------|
A|-5-5-5-5-5-5-5-5--|------------------|-2-2-2-2-2-2-2-2--|-2-2-2-------4-4--|
E|------------------|-0-0-0-0-0-0-0-0--|------------------|------------------|
   1 + 2 + 3 + 4 +    1 + 2 + 3 + 4 +    1 + 2 + 3 + 4 +    1 + 2 + 3 + 4 +

G|------------------|------------------|------------------|------------------|
D|------------------|------------------|------------------|------------------|
A|-2-2-2-2-2-2-2-2--|-2-2-2-2-2-2-2-2--|-2-2-2-2-2-2-2-2--|-2-2-2-2-2-2-2-2--|
E|------------------|------------------|------------------|------------------|
   1 + 2 + 3 + 4 +    1 + 2 + 3 + 4 +    1 + 2 + 3 + 4 +    1 + 2 + 3 + 4 +

G|------------------|------------------|------------------|------------------|
D|------------------|------------------|------------------|------------------|
A|-5-5-5-5-5-5-5-5--|------------------|-2-2-2-2-2-2-2-2--|-2-2-2-2----------|
E|------------------|-0-0-0-0-0-0-0-0--|------------------|---------0---2----|
   1 + 2 + 3 + 4 +    1 + 2 + 3 + 4 +    1 + 2 + 3 + 4 +    1 + 2 + 3 + 4 +

CHORUS

G|------------------|------------------|------------------|------------------|
D|------------------|------------------|------------------|------------------|
A|------------------|------------------|-2---2---2-2-2-2--|------------------|
E|-3---3---3-3-3-3--|-0---0-0-0-0-0-0--|------------------|-2---2-2-2-2-2-2--|
   1 + 2 + 3 + 4 +    1 + 2 + 3 + 4 +    1 + 2 + 3 + 4 +    1 + 2 + 3 + 4 +

G|------------------|------------------|------------------|------------------|
D|------------------|-----7------------|------------------|------------------|
A|-----5---4---2----|-0-------0-0-0-0--|---X-2-----X-2----|---X-2-----X-2----|
E|-3----------------|------------------|------------------|------------------|
   1 + 2 + 3 + 4 +    1 + 2 + 3 + 4 +    1 + 2 + 3 + 4 +    1 + 2 + 3 + 4 +

G|------------------|------------------|------------------|------------------|
D|------------------|------------------|------------------|------------------|
A|------------------|------------------|-2---2---2-2-2-2--|------------------|
E|-3---3---3-3-3-3--|-0---0-0-0-0-0-0--|------------------|-2---2-2-2-2-2-2--|
   1 + 2 + 3 + 4 +    1 + 2 + 3 + 4 +    1 + 2 + 3 + 4 +    1 + 2 + 3 + 4 +

G|------------------|------------------|------------------|------------------|
D|------------------|------------------|------------------|------------------|
A|------------------|-0----------------|-2-2-2-2-2-2-2-2--|-2----------------|
E|-3-3-3-3-3-3-3-3--|------------------|------------------|------------------|
   1 + 2 + 3 + 4 +    1 + 2 + 3 + 4 +    1 + 2 + 3 + 4 +    1 + 2 + 3 + 4 +


INTERLUDE

G|------------------|------------------|------------------|------------------|
D|------------------|------------------|------------------|------------------|
A|-2-2-X-2---2-2-2--|-2-2-2-2-2-2-2-2--|-2-2-X-2---2-2-2--|-2-2-2-2-2-2-2-2--|
E|------------------|------------------|------------------|------------------|
   1 + 2 + 3 + 4 +    1 + 2 + 3 + 4 +    1 + 2 + 3 + 4 +    1 + 2 + 3 + 4 +


G|------------------|------------------|------------------|------------------|
D|------------------|------------------|------------------|------------------|
A|-5-5-X-5---5-5-5--|------------------|-2-2-2-2-2-2-2-2--|-2-2-2-2-2-2-2-2--|
E|------------------|-0-0-0-0-0-0-0-0--|------------------|------------------|
   1 + 2 + 3 + 4 +    1 + 2 + 3 + 4 +    1 + 2 + 3 + 4 +    1 + 2 + 3 + 4 +

VERSE

G|------------------|------------------|------------------|------------------|
D|------------------|------------------|------------------|------------------|
A|-2-2-2-2-2-2-2-2--|-2-2-2-2-2-2-2-2--|-2-2-2-2-2-2-2-2--|-2-2-2-2-2-2-2-2--|
E|------------------|------------------|------------------|------------------|
   1 + 2 + 3 + 4 +    1 + 2 + 3 + 4 +    1 + 2 + 3 + 4 +    1 + 2 + 3 + 4 +

G|------------------|------------------|------------------|------------------|
D|------------------|------------------|------------------|------------------|
A|-5-5-5-5-5-5-5-5--|------------------|-2-2-2-2-2-2-2-2--|-2-2-2-2-1-1------|
E|------------------|-0-0-0-0-0-0-0-0--|------------------|------------------|
   1 + 2 + 3 + 4 +    1 + 2 + 3 + 4 +    1 + 2 + 3 + 4 +    1 + 2 + 3 + 4 +

G|------------------|------------------|------------------|------------------|
D|------------------|------------------|------------------|------------------|
A|-2-2-2-2-2-2-2-2--|-2-2-2-2-2-2-2-2--|-2-2-2-2-2-2-2-2--|-2-2-2-2-2-2-2-2--|
E|------------------|------------------|------------------|------------------|
   1 + 2 + 3 + 4 +    1 + 2 + 3 + 4 +    1 + 2 + 3 + 4 +    1 + 2 + 3 + 4 +

G|------------------|------------------|------------------|------------------|
D|------------------|------------------|------------------|------------------|
A|-5-5-5-5-5-5-5-5--|------------------|-2-2-2-2-2-2-2-2--|-2-2-2-2----------|
E|------------------|-0-0-0-0-0-0-0-0--|------------------|---------0---2----|
   1 + 2 + 3 + 4 +    1 + 2 + 3 + 4 +    1 + 2 + 3 + 4 +    1 + 2 + 3 + 4 +

CHORUS

G|------------------|------------------|------------------|------------------|
D|------------------|------------------|------------------|------------------|
A|------------------|------------------|-2---2---2-2-2-2--|------------------|
E|-3---3---3-3-3-3--|-0---0-0-0-0-0-0--|------------------|-2---2-2-2-2-2-2--|
   1 + 2 + 3 + 4 +    1 + 2 + 3 + 4 +    1 + 2 + 3 + 4 +    1 + 2 + 3 + 4 +

G|------------------|------------------|------------------|------------------|
D|------------------|-----7------------|------------------|------------------|
A|-----5---4---2----|-0-------0-0-0-0--|---X-2-----X-2----|---X-2-----X-2----|
E|-3----------------|------------------|------------------|------------------|
   1 + 2 + 3 + 4 +    1 + 2 + 3 + 4 +    1 + 2 + 3 + 4 +    1 + 2 + 3 + 4 +

G|------------------|------------------|------------------|------------------|
D|------------------|------------------|------------------|------------------|
A|------------------|------------------|-2---2---2-2-2-2--|------------------|
E|-3---3---3-3-3-3--|-0---0-0-0-0-0-0--|------------------|-2---2-2-2-2-2-2--|
   1 + 2 + 3 + 4 +    1 + 2 + 3 + 4 +    1 + 2 + 3 + 4 +    1 + 2 + 3 + 4 +

G|------------------|------------------|------------------|
D|------------------|------------------|------------------|
A|------------------|-0----------------|---------14\---2--|
E|-3-3-3-3-3-3-3-3--|------------------|------------------|
   1 + 2 + 3 + 4 +    1 + 2 + 3 + 4 +    1 + 2 + 3 + 4 +

INTERLUDE

G|------------------|------------------|------------------|------------------|
D|------------------|------------------|------------------|------------------|
A|-----2---2---2----|-2---2-2-2-2---2--|-----2---2---2----|-2---2-2-2-2------|
E|------------------|------------------|------------------|---------------3--|
   1 + 2 + 3 + 4 +    1 + 2 + 3 + 4 +    1 + 2 + 3 + 4 +    1 + 2 + 3 + 4 +

G|------------------|------------------|------------------|------------------|
D|------------------|------------------|------------------|------------------|
A|------------------|------------------|------------------|---------------2--|
E|-----3---3---3----|-3---3-3-3-3---3--|-----3---3---3----|-3---3-3-3-3------|
   1 + 2 + 3 + 4 +    1 + 2 + 3 + 4 +    1 + 2 + 3 + 4 +    1 + 2 + 3 + 4 +

G|------------------|------------------|------------------|------------------|
D|------------------|------------------|------------------|------------------|
A|-----2---2---2----|-2---2-2-2-2---2--|-----2---2---2----|-2---2-2-2-2------|
E|------------------|------------------|------------------|---------------3--|
   1 + 2 + 3 + 4 +    1 + 2 + 3 + 4 +    1 + 2 + 3 + 4 +    1 + 2 + 3 + 4 +

G|------------------|------------------|------------------|------------------|
D|------------------|------------------|------------------|------------------|
A|------------------|------------------|------------------|------------------|
E|-----3---3---3----|-3---3-3-3-3---3--|-----3---3---3----|-3---2---0---3----|
   1 + 2 + 3 + 4 +    1 + 2 + 3 + 4 +    1 + 2 + 3 + 4 +    1 + 2 + 3 + 4 +

BRIDGE

G|------------------|------------------|------------------|------------------|
D|------------------|------------------|------------------|------------------|
A|-0---0-0-0-0-0-0--|-0-0-0-0-0-0-0-0--|------------------|------------------|
E|------------------|------------------|-0---0-0-0-0-0-0--|-0-0-0-0-0-0-0-0--|
   1 + 2 + 3 + 4 +    1 + 2 + 3 + 4 +    1 + 2 + 3 + 4 +    1 + 2 + 3 + 4 +

G|------------------|------------------|------------------|------------------|
D|------------------|------------------|------------------|------------------|
A|------------------|------------------|-0----------------|-1----------------|
E|-3---3-3-3-3-3-3--|-3-3-3-3-3-3-3-3--|------------------|------------------|
   1 + 2 + 3 + 4 +    1 + 2 + 3 + 4 +    1 + 2 + 3 + 4 +    1 + 2 + 3 + 4 +

G|--------------|-------------|--------------|--------------|
D|--------------|-------------|--------------|--------------|
A|-2------------|-------------|-2------------|-5---4---0----|
E|-----3---2----|-0---2---3---|-----3---2----|--------------|
   1 + 2 + 3 +    1 + 2 + 3 +   1 + 2 + 3 +    1 + 2 + 3 +

G|--------------|-------------|--------------|--------------|
D|--------------|-------------|--------------|--------------|
A|-2------------|-------------|-2------------|-5---4---0----|
E|-----3---2----|-0---2---3---|-----3---2----|--------------|
   1 + 2 + 3 +    1 + 2 + 3 +   1 + 2 + 3 +    1 + 2 + 3 +

G|--------------|-------------|--------------|--------------|
D|--------------|-------------|--------------|--------------|
A|-5\-----------|-5\----------|-7-------7----|-9---7---5----|
E|---------3----|---------3---|--------------|--------------|
   1 + 2 + 3 +    1 + 2 + 3 +   1 + 2 + 3 +    1 + 2 + 3 +

G|--------------|-------------|--------------|--------------|
D|--------------|-------------|--------------|--------------|
A|-2------------|-2-----------|-2------------|-2---1--------|
E|---------0----|---------0---|---------0----|--------------|
   1 + 2 + 3 +    1 + 2 + 3 +   1 + 2 + 3 +    1 + 2 + 3 +

G|--------------|-------------|--------------|--------------|
D|--------------|-------------|--------------|--------------|
A|-2------------|-------------|-2------------|-5---4---0----|
E|-----3---2----|-0---2---3---|-----3---2----|--------------|
   1 + 2 + 3 +    1 + 2 + 3 +   1 + 2 + 3 +    1 + 2 + 3 +

G|--------------|-------------|--------------|--------------|
D|--------------|-------------|--------------|--------------|
A|-2------------|-------------|-2------------|-5---4---0----|
E|-----3---2----|-0---2---3---|-----3---2----|--------------|
   1 + 2 + 3 +    1 + 2 + 3 +   1 + 2 + 3 +    1 + 2 + 3 +

G|--------------|-------------|--------------|--------------|
D|--------------|-------------|--------------|--------------|
A|-5\-----------|-5\----------|-7-------7----|-9---7---5----|
E|---------3----|---------3---|--------------|--------------|
   1 + 2 + 3 +    1 + 2 + 3 +   1 + 2 + 3 +    1 + 2 + 3 +

G|------------------|-------------------------|
D|------------------|-------------------------|
A|-2-2-2-2-2-2-2-2//|-14-14-14-14-14\\\-------|
E|------------------|-------------------------|
   1 + 2 + 3 + 4 +    1  +  2  +  3  +  4  +

CHORUS

G|------------------|------------------|------------------|------------------|
D|------------------|------------------|------------------|------------------|
A|------------------|------------------|-2---2---2-2-2-2--|------------------|
E|-3---3---3-3-3-3--|-0---0-0-0-0-0-0--|------------------|-2---2-2-2-2-2-2--|
   1 + 2 + 3 + 4 +    1 + 2 + 3 + 4 +    1 + 2 + 3 + 4 +    1 + 2 + 3 + 4 +

G|------------------|------------------|------------------|------------------|
D|------------------|-----7------------|------------------|------------------|
A|-----5---4---2----|-0-------0-0-0-0--|---X-2-----X-2----|---X-2-----X-2----|
E|-3----------------|------------------|------------------|------------------|
   1 + 2 + 3 + 4 +    1 + 2 + 3 + 4 +    1 + 2 + 3 + 4 +    1 + 2 + 3 + 4 +

G|------------------|------------------|------------------|------------------|
D|------------------|------------------|------------------|------------------|
A|------------------|------------------|-2---2---2-2-2-2--|------------------|
E|-3---3---3-3-3-3--|-0---0-0-0-0-0-0--|------------------|-2---2-2-2-2-2-2--|
   1 + 2 + 3 + 4 +    1 + 2 + 3 + 4 +    1 + 2 + 3 + 4 +    1 + 2 + 3 + 4 +

G|------------------|------------------|
D|------------------|------------------|
A|------------------|-0-0-0-0-0-0-0-0--|
E|-3-3-3-3-3-3-3-3--|------------------|
   1 + 2 + 3 + 4 +    1 + 2 + 3 + 4 +

OUTRO

G|------------------|------------------|------------------|------------------|
D|------------------|------------------|------------------|------------------|
A|-2-2-X-2---2-2-2--|-2-2-2-2-2-2-2-2--|-2-2-X-2---2-2-2--|-2-2-2-2-2-2-2-2--|
E|------------------|------------------|------------------|------------------|
   1 + 2 + 3 + 4 +    1 + 2 + 3 + 4 +    1 + 2 + 3 + 4 +    1 + 2 + 3 + 4 +


G|------------------|------------------|------------------|--------------------------|
D|------------------|------------------|------------------|--------------------------|
A|-5-5-X-5---5-5-5--|------------------|-2-2-2-2-2-2-2-2//|-14-14\9--9--7--7--5--5---|
E|------------------|-0-0-0-0-0-0-0-0--|------------------|--------------------------|
   1 + 2 + 3 + 4 +    1 + 2 + 3 + 4 +    1 + 2 + 3 + 4 +    1  +  2  +  3  +  4  +


G|------------------|------------------|------------------|------------------|
D|------------------|------------------|------------------|------------------|
A|-2-2-X-2---2-2-2--|-2-2-2-2-2-2-2-2--|-2-2-X-2---2-2-2--|-2-2-2-2-2-2-2-2--|
E|------------------|------------------|------------------|------------------|
   1 + 2 + 3 + 4 +    1 + 2 + 3 + 4 +    1 + 2 + 3 + 4 +    1 + 2 + 3 + 4 +


G|------------------|------------------|------------------|------------------|
D|------------------|------------------|------------------|------------------|
A|-5----------------|------------------|------------------|------------------|
E|------------------|-0----------------|------------------|------------------|
   1 + 2 + 3 + 4 +    1 + 2 + 3 + 4 +    1 + 2 + 3 + 4 +    1 + 2 + 3 + 4 +
   Slowing down....

            
            
Suggest correction
Creating personal tab
Creating personal tab
You can edit any tab online and save it as your Personal.

You can edit, replace or remove any tab part or add personal notes – all changes will be seen only by you.

Personal tabs can be accessed anytime from any device, even offline.
Learn more »
comments
print report bad tab
2 comments total.
0 reply
XiPlayBassX 10 May 23, 2010 11:54 PM

Very nice tab. sounds just about tight

0 reply
Djkgund 10 May 19, 2015 09:43 AM

I'm not 100% sure about this song but I know Savior is played in Eb. I'd have to listen to them back to back to see if they're the same but it's safe to assume so

guest
You may want to rate the tab now too:
select rating
Wanna post a correction for this tab? Suggest correction