Oops, an error
Loading. Please wait.

Faint Resemblance bass

version 2
version 2

Whole song

Interactive

386 views 1 this week
no commentswrite comment
1 2 3 4 5
3 more votes to show rating
add to favorites
×
Save as Personal and add changes to this tab that will be seen only by you. Learn more ›
×
You can save this tab as Personal to edit and correct it or add notes. All changes will be seen only by you. Learn more »
launch autoscroll
font size
0
reset
guitar tuner
edit
Autoscroll
slow
fast
+/-
esc
set tempo
stop
Song: Weight of Time
Band: Rise Against
Album: The Unraveling
Bassist: Joe Principe

INTRO

G|-----------------|-----------------|-----------------|-----------------||
D|-----------------|-----------------|-----------------|-----------------||
A|-----------------|-----------------|-----------------|-3-3---3---------||
E|-----------------|-----------------|-----------------|---------3-3---3-||
   1 + 2 + 3 + 4 +   1 + 2 + 3 + 4 +   1 + 2 + 3 + 4 +   1 + 2 + 3 + 4 +

VERSE

G|-----------------|-----------------|-----------------|-----------------|
D|-----------------|-----------------|-----------------|-----------------|
A|-----------------|-3-3-3-3-3-3-3-3-|-----------------|-3-3-3-3---------|
E|-5-5-5-5-5-5-5-5-|-----------------|-1-1-1-1-1-1-1-1-|---------3-3-3-3-|
   1 + 2 + 3 + 4 +   1 + 2 + 3 + 4 +   1 + 2 + 3 + 4 +   1 + 2 + 3 + 4 +

G|-----------------|-----------------|-----------------|-----------------|
D|-----------------|-----------------|-----------------|-----------------|
A|-----------------|-3-3-3-3-3-3-3-3-|-----------------|-3-3-3-3---------|
E|-5-5-5-5-5-5-5-5-|-----------------|-1-1-1-1-1-1-1-1-|---------3-3-3-3-|
   1 + 2 + 3 + 4 +   1 + 2 + 3 + 4 +   1 + 2 + 3 + 4 +   1 + 2 + 3 + 4 +

G|-----------------|-----------------|-----------------|-----------------|
D|-----------------|-----------------|-----------------|-----------------|
A|-----------------|-3-3-3-3-3-3-3-3-|-----------------|-3-3-3-3---------|
E|-5-5-5-5-5-5-5-5-|-----------------|-1-1-1-1-1-1-1-1-|---------3-3-3-3-|
   1 + 2 + 3 + 4 +   1 + 2 + 3 + 4 +   1 + 2 + 3 + 4 +   1 + 2 + 3 + 4 +

G|-----------------|-----------------|-----------------|-----------------||
D|-----------------|-----------------|-----------------|-----------------||
A|-----------------|-3-3-3-3-3-3-3-3-|-----------------|-3-3-3-3---------||
E|-5-5-5-5-5-5-5-5-|-----------------|-1-1-1-1-1-1-1-1-|---------3-3-3-3-||
   1 + 2 + 3 + 4 +   1 + 2 + 3 + 4 +   1 + 2 + 3 + 4 +   1 + 2 + 3 + 4 +

CHORUS

G|-----------------|-----------------|-----------------|-----------------|
D|-----------------|-----------------|-----------------|-----------------|
A|---------------3-|---3-3-----------|---------------3-|---3-3-----------|
E|-1---1---1-1-1---|-------3---3-3-3-|-1---1---1-1-1---|---------3---3---|
   1 + 2 + 3 + 4 +   1 + 2 + 3 + 4 +   1 + 2 + 3 + 4 +   1 + 2 + 3 + 4 +

G|-----------------|-----------------|-----------------|-----------------||
D|-----------------|-----------------|-----------------|-----------------||
A|---------------3-|---3-3-----------|-----------------|-----------------||
E|-1---1---1-1-1---|-------3---3-3-3-|-1---1---1-1---3-|-----------------||
   1 + 2 + 3 + 4 +   1 + 2 + 3 + 4 +   1 + 2 + 3 + 4 +   1 + 2 + 3 + 4 +

INTERLUDE

G|-----------------|-----------------|-----------------|-----------------||
D|-----------------|-----------------|-----------------|-----------------||
A|-----------------|-----------------|-----------------|-3-3---3---------||
E|-5---------------|-----------------|-----------------|---------3-3---3-||
   1 + 2 + 3 + 4 +   1 + 2 + 3 + 4 +   1 + 2 + 3 + 4 +   1 + 2 + 3 + 4 +

VERSE

G|-----------------|-----------------|-----------------|-----------------|
D|-----------------|-----------------|-----------------|-----------------|
A|-----------------|-3-3-3-3-3-3-3-3-|-----------------|-3-3-3-3---------|
E|-5-5-5-5-5-5-5-5-|-----------------|-1-1-1-1-1-1-1-1-|---------3-3-3-3-|
   1 + 2 + 3 + 4 +   1 + 2 + 3 + 4 +   1 + 2 + 3 + 4 +   1 + 2 + 3 + 4 +

G|-----------------|-----------------|-----------------|-----------------|
D|-----------------|-----------------|-----------------|-----------------|
A|-----------------|-3-3-3-3-3-3-3-3-|-----------------|-3-3-3-3---------|
E|-5-5-5-5-5-5-5-5-|-----------------|-1-1-1-1-1-1-1-1-|---------3-3-3-3-|
   1 + 2 + 3 + 4 +   1 + 2 + 3 + 4 +   1 + 2 + 3 + 4 +   1 + 2 + 3 + 4 +

G|-----------------|-----------------|-----------------|-----------------|
D|-----------------|-----------------|-----------------|-----------------|
A|-----------------|-3-3-3-3-3-3-3-3-|-----------------|-3-3-3-3---------|
E|-5-5-5-5-5-5-5-5-|-----------------|-1-1-1-1-1-1-1-1-|---------3-3-3-3-|
   1 + 2 + 3 + 4 +   1 + 2 + 3 + 4 +   1 + 2 + 3 + 4 +   1 + 2 + 3 + 4 +

G|-----------------|-----------------|-----------------|-----------------||
D|-----------------|-----------------|-----------------|-----------------||
A|-----------------|-3-3-3-3-3-3-3-3-|-----------------|-3-3-3-3---------||
E|-5-5-5-5-5-5-5-5-|-----------------|-1-1-1-1-1-1-1-1-|---------3-3-3-3-||
   1 + 2 + 3 + 4 +   1 + 2 + 3 + 4 +   1 + 2 + 3 + 4 +   1 + 2 + 3 + 4 +

CHORUS

G|-----------------|-----------------|-----------------|-----------------|
D|-----------------|-----------------|-----------------|-----------------|
A|---------------3-|---3-3-----------|---------------3-|---3-3-----------|
E|-1---1---1-1-1---|-------3---3-3-3-|-1---1---1-1-1---|---------3---3---|
   1 + 2 + 3 + 4 +   1 + 2 + 3 + 4 +   1 + 2 + 3 + 4 +   1 + 2 + 3 + 4 +

G|-----------------|-----------------|-----------------|-----------------||
D|-----------------|-----------------|-----------------|-----------------||
A|---------------3-|---3-3-----------|-----------------|-----------------||
E|-1---1---1-1-1---|-------3---3-3-3-|-1---1---1-1---3-|-----------------||
   1 + 2 + 3 + 4 +   1 + 2 + 3 + 4 +   1 + 2 + 3 + 4 +   1 + 2 + 3 + 4 +

INTERLUDE

G|-----------------|-------------|-----------------|-----------------|
D|-----------------|-------------|-----------------|-----------------|
A|-----------------|-------------|-----------------|-----------------|
E|-1---1---1-1-1-1-|---1-1---1-1-|-3---3---3-3-3-3-|---3-3---3---3-3-|
   1 + 2 + 3 + 4 +   1 + 2 + 3 +   1 + 2 + 3 + 4 +   1 + 2 + 3 + 4 +

G|-----------------|-------------|-----------------|-----------------|
D|-----------------|-------------|-----------------|-----------------|
A|-----------------|-------------|---------------3-|---3-----3-------|
E|-1---1---1-1-1-1-|---1-1---1-1-|-3---3---3-3-3---|-----3-------3---|
   1 + 2 + 3 + 4 +   1 + 2 + 3 +   1 + 2 + 3 + 4 +   1 + 2 + 3 + 4 +

G|-----------------|-------------|-----------------|-----------------|
D|-----------------|-------------|-----------------|-----------------|
A|-----------------|-------------|-----------------|-----------------|
E|-1---1---1-1-1-1-|---1-1---1-1-|-3---3---3-3-3-3-|---3-3---3---3-3-|
   1 + 2 + 3 + 4 +   1 + 2 + 3 +   1 + 2 + 3 + 4 +   1 + 2 + 3 + 4 +

G|-----------------|-------------|-----------------|-----------------||
D|-----------------|-------------|-----------------|-----------------||
A|-----------------|-------------|---------------3-|---3-----3-------||
E|-1---1---1-1-1-1-|---1-1---1-1-|-3---3---3-3-3---|-----3-------3---||
   1 + 2 + 3 + 4 +   1 + 2 + 3 +   1 + 2 + 3 + 4 +   1 + 2 + 3 + 4 +

BRIDGE

G|-----------------|-----------------|-----------------|-----------------|
D|-----------------|-----------------|-----------------|-----------------|
A|---------------3-|---3-3---3-3-3-3-|-----------------|-----------------|
E|-5---5---5-5-5---|-----------------|-1---1---1-1-1-1-|---1-1---3-3-3-3-|
   1 + 2 + 3 + 4 +   1 + 2 + 3 + 4 +   1 + 2 + 3 + 4 +   1 + 2 + 3 + 4 +

G|-----------------|-----------------|-----------------|-----------------|
D|-----------------|-----------------|-----------------|-----------------|
A|---------------3-|---3-3---3-3-3-3-|---------------3-|---3-3-----------|
E|-5---5---5-5-5---|-----------------|-1---1---1-1-1---|---------3-3-3-3-|
   1 + 2 + 3 + 4 +   1 + 2 + 3 + 4 +   1 + 2 + 3 + 4 +   1 + 2 + 3 + 4 +

G|-----------------|-----------------|-----------------|-----------------|
D|-----------------|-----------------|-----------------|-----------------|
A|---------------3-|---3-3---3-3-3-3-|-----------------|-----------------|
E|-5---5---5-5-5---|-----------------|-1---1---1-1-1-1-|---1-1---3-3-3-3-|
   1 + 2 + 3 + 4 +   1 + 2 + 3 + 4 +   1 + 2 + 3 + 4 +   1 + 2 + 3 + 4 +

G|-----------------|-----------------|-----------------|-----------------||
D|-----------------|-----------------|-----------------|-----------------||
A|---------------3-|---3-3---3-3-3-3-|---------------3-|---3-3-----------||
E|-5---5---5-5-5---|-----------------|-1---1---1-1-1---|---------3-3-3-3-||
   1 + 2 + 3 + 4 +   1 + 2 + 3 + 4 +   1 + 2 + 3 + 4 +   1 + 2 + 3 + 4 +

CHORUS

G|-----------------|-----------------|-----------------|-----------------|
D|-----------------|-----------------|-----------------|-----------------|
A|---------------3-|---3-3-----------|---------------3-|---3-3-----------|
E|-1---1---1-1-1---|-------3---3-3-3-|-1---1---1-1-1---|---------3---3---|
   1 + 2 + 3 + 4 +   1 + 2 + 3 + 4 +   1 + 2 + 3 + 4 +   1 + 2 + 3 + 4 +

G|-----------------|-----------------|-----------------|-----------------||
D|-----------------|-----------------|-----------------|-----------------||
A|---------------3-|---3-3-----------|-----------------|-----------------||
E|-1---1---1-1-1---|-------3---3-3-3-|-1---1---1-1---3-|-----------------||
   1 + 2 + 3 + 4 +   1 + 2 + 3 + 4 +   1 + 2 + 3 + 4 +   1 + 2 + 3 + 4 +

OUTRO

G|-----------------|-----------------|-----------------|-----------------|
D|-----------------|-----------------|-----------------|-----------------|
A|-----------------|-----------------|-----------------|-----------------|
E|-----------------|-----------------|-5-5-5-5-5-5-5-5-|-5-5-5-5-5-5-5-5-|
   1 + 2 + 3 + 4 +   1 + 2 + 3 + 4 +   1 + 2 + 3 + 4 +   1 + 2 + 3 + 4 +

G|-----------------|-----------------|-----------------|-----------------|
D|-----------------|-----------------|-----------------|-----------------|
A|-----------------|-------------3-3-|-----------------|-----------------|
E|-3-3-3-3-3-3-3-3-|-0-0-0-1-1-1-----|-5-5-5-5-5-5-5-5-|-5-5-5-5-5-5-5-5-|
   1 + 2 + 3 + 4 +   1 + 2 + 3 + 4 +   1 + 2 + 3 + 4 +   1 + 2 + 3 + 4 +

G|-----------------|-----------------|-----------------|-----------------|
D|-----------------|-----------------|-----------------|-----------------|
A|-----------------|-------------3-3-|-----------------|-----------------|
E|-3-3-3-3-3-3-3-3-|-0-0-0-1-1-1-----|-5-5-5-5-5-5-5-5-|-5-5-5-5-5-5-5-5-|
   1 + 2 + 3 + 4 +   1 + 2 + 3 + 4 +   1 + 2 + 3 + 4 +   1 + 2 + 3 + 4 +

G|-----------------|-----------------|-----------------|-----------------|
D|-----------------|-----------------|-----------------|-----------------|
A|-----------------|-------------3-3-|-----------------|-----------------|
E|-3-3-3-3-3-3-3-3-|-0-0-0-1-1-1-----|-5-5-5-5-5-5-5-5-|-5-5-5-5-5-5-5-5-|
   1 + 2 + 3 + 4 +   1 + 2 + 3 + 4 +   1 + 2 + 3 + 4 +   1 + 2 + 3 + 4 +

G|-----------------|-----------------|-----------------|-----------------|
D|-----------------|-----------------|-----------------|-----------------|
A|-----------------|-------------3-3-|-----------------|-----------------|
E|-3-3-3-3-3-3-3-3-|-0-0-0-1-1-1-----|-5-5-5-5-5-5-5-5-|-5-5-5-5-5-5-5-5-|
   1 + 2 + 3 + 4 +   1 + 2 + 3 + 4 +   1 + 2 + 3 + 4 +   1 + 2 + 3 + 4 +

G|-----------------|-----------------|-----------------|-----------------|
D|-----------------|-----------------|-----------------|-----------------|
A|-----------------|-------------3-3-|-----------------|-----------------|
E|-3-3-3-3-3-3-3-3-|-0-0-0-1-1-1-----|-5-5-5-5-5-5-5-5-|-5-5-5-5-5-5-5-5-|
   1 + 2 + 3 + 4 +   1 + 2 + 3 + 4 +   1 + 2 + 3 + 4 +   1 + 2 + 3 + 4 +

G|-----------------|-----------------|-----------------|-----------------||
D|-----------------|-----------------|-----------------|-----------------||
A|-----------------|-------------3-3-|-----------------|-----------------||
E|-3-3-3-3-3-3-3-3-|-0-0-0-1-1-1-----|-5~ -------------|-----------------||
   1 + 2 + 3 + 4 +   1 + 2 + 3 + 4 +   1 + 2 + 3 + 4 +   1 + 2 + 3 + 4 +

            
            
Suggest correction
Creating personal tab
Creating personal tab
You can edit any tab online and save it as your Personal.

You can edit, replace or remove any tab part or add personal notes – all changes will be seen only by you.

Personal tabs can be accessed anytime from any device, even offline.
Learn more »
Give kudos to tab author, rate the tab!
1 2 3 4 5
comments
print report bad tab
guest
You may want to rate the tab now too:
select rating
Wanna post a correction for this tab? Suggest correction