Oops, an error
Loading. Please wait.

Fix Me bass

882 views 3 this week
2 commentsread comments
1 2 3 4 5
x 4
add to favorites
×
Save as Personal and add changes to this tab that will be seen only by you. Learn more ›
×
You can save this tab as Personal to edit and correct it or add notes. All changes will be seen only by you. Learn more »
launch autoscroll
font size
0
reset
guitar tuner
edit
Autoscroll
slow
fast
+/-
esc
set tempo
stop
Author
Difficulty
Artist: Rise Against
Song: Fix Me (originally by Black Flag)
Album: Off Of Tony Hawk's American Wasteland
Tuning: Standard (low to high: EADG)

Intro
G|---------------------------------|
D|---------------------------------|
A|-0-0-0-0-2-2-2-2-0-0-0-0-3-3-3-3-|
E|---------------------------------| 2x

Verse
   Someday  I'll  feel  no  pain
   Someday I won't have a brain
   They'll take away all that hurts
   And  let  the  rest  remain
G|---------------------------------|
D|---------------------------------|
A|-0-0-0-0-2-2-2-2-0-0-0-0-3-3-3-3-|
E|---------------------------------| 4x

Chorus
  Fix Me   fix My Head  fix me please I don't wanna be dead
G|---------------------------------------------------------|
D|---------------------------------------------------------|
A|-5--5----7--7--7--5----3--5--3--7----5--3--5--3--5--5--7-|
E|---------------------------------------------------------| 1x

Verse
   Someday  we'll  all  be  rich
   Someday I won't listen to you bitch
   I'll  Turn  up  the  volume 
   So you can hear all the tish we play just freak you
G|---------------------------------|
D|---------------------------------|
A|-0-0-0-0-2-2-2-2-0-0-0-0-3-3-3-3-|
E|---------------------------------| 4x

Chorus
  Fix Me   fix My Head  fix me please I don't wanna be dead
G|---------------------------------------------------------|
D|---------------------------------------------------------|
A|-5--5----7--7--7--5----3--5--3--7----5--3--5--3--5--5--7-|
E|---------------------------------------------------------| 1x

Verse
   Someday  I'll  feel  no  pain
   Someday I won't have a brain
   They'll take away all that hurts
   And  let  the  rest  remain
G|---------------------------------|
D|---------------------------------|
A|-0-0-0-0-2-2-2-2-0-0-0-0-3-3-3-3-|
E|---------------------------------| 4x

Chorus
  Fix Me   fix My Head  fix me please I don't wanna be dead
G|---------------------------------------------------------|
D|---------------------------------------------------------|
A|-5--5----7--7--7--5----3--5--3--7----5--3--5--3--5--5--7-|
E|---------------------------------------------------------| 1x

Outro
   So fix it
G|----------|
D|----------|
A|-5--5\1---|
E|----------| 1x

END 

            
            
Suggest correction
Creating personal tab
Creating personal tab
You can edit any tab online and save it as your Personal.

You can edit, replace or remove any tab part or add personal notes – all changes will be seen only by you.

Personal tabs can be accessed anytime from any device, even offline.
Learn more »
comments
print report bad tab
2 comments total.
0 reply
jak_daniels 20 Oct 16, 2008 05:34 PM

kickass tab man

+1 reply
RA-mliyh2 10 Aug 18, 2013 06:37 PM

the lyrics actually go "So you can hear all the shit we play just for you"

guest
You may want to rate the tab now too:
select rating
Wanna post a correction for this tab? Suggest correction