Oops, an error
Loading. Please wait.
We have an official From Heads Unworthy tab made by UG professional guitarists. Check out the tab »
×
10,956 views 3 this week
7 commentsread comments
1 2 3 4 5
x 16
add to favorites
×
Save as Personal and add changes to this tab that will be seen only by you. Learn more ›
×
You can save this tab as Personal to edit and correct it or add notes. All changes will be seen only by you. Learn more »
launch autoscroll
font size
0
reset
guitar tuner
edit
Autoscroll
slow
fast
+/-
esc
set tempo
stop
From Heads Unworthy
Rise Against
Joe Principe - Bass

Intro/Verse

Gb|------------------|------------------|------------------|------------------|
Db|------------------|------------------|------------------|------------------|
Ab|------------------|------------------|------------------|------------------|
Eb|------------------|------------------|------------------|------------------|
    1 + 2 + 3 + 4 +    1 + 2 + 3 + 4 +    1 + 2 + 3 + 4 +    1 + 2 + 3 + 4 +

Gb|------------------|------------------|------------------|------------------|
Db|------------------|------------------|------------------|------------------|
Ab|------------------|------------------|------------------|------------------|
Eb|------------------|------------------|------------------|------------------|
    1 + 2 + 3 + 4 +    1 + 2 + 3 + 4 +    1 + 2 + 3 + 4 +    1 + 2 + 3 + 4 +

Gb|------------------|------------------|------------------|------------------|
Db|------------------|------------------|------------------|------------------|
Ab|------------------|------------------|------------------|------------------|
Eb|------------------|------------------|------------------|------------------|
    1 + 2 + 3 + 4 +    1 + 2 + 3 + 4 +    1 + 2 + 3 + 4 +    1 + 2 + 3 + 4 +

Gb|------------------|------------------|------------------|------------------|
Db|------------------|------------------|------------------|------------------|
Ab|------------------|------------------|-5----------------|-3-3-3-3-3-3/15\\-|
Eb|-0----------------|-3----------------|------------------|------------------|
    1 + 2 + 3 + 4 +    1 + 2 + 3 + 4 +    1 + 2 + 3 + 4 +    1 + 2 + 3 + 4 +

Pre-Chorus

Gb|------------------|------------------|------------------|------------------|
Db|------------------|------------------|------------------|-9-9-9-7-7-7-5-5--|
Ab|-3-3-3-3-3-3-3-3--|-3-3-3-3-3-3-3-3--|-5-5-5-5-5-5-5-5/-|------------------|
Eb|------------------|------------------|------------------|------------------|
    1 + 2 + 3 + 4 +    1 + 2 + 3 + 4 +    1 + 2 + 3 + 4 +    1 + 2 + 3 + 4 +

Gb|------------------|------------------|------------------|------------------|
Db|------------------|------------------|------------------|------------------|
Ab|-3-3-3-3-3-3-3-3--|-3-3-3-3-3-3-3-3--|-5-5-5-5-5-5-5-5--|-------5-5--------|
Eb|------------------|------------------|------------------|-3-3-3------------|
    1 + 2 + 3 + 4 +    1 + 2 + 3 + 4 +    1 + 2 + 3 + 4 +    1 + 2 + 3 + 4 +

Chorus 

Gb|------------------|------------------|------------------|------------------|
Db|------------------|------------------|------------------|------------------|
Ab|------------------|-5-5-5-5-5-5-5-5--|-3-3-3-3----------|-5-5-5-5-5-5-5-5--|
Eb|-0-0-0-0-3-3-3-3--|------------------|---------3-3-3-3--|------------------|
    1 + 2 + 3 + 4 +    1 + 2 + 3 + 4 +    1 + 2 + 3 + 4 +    1 + 2 + 3 + 4 +

Gb|------------------|------------------|------------------|------------------|
Db|------------------|------------------|-101010109-9-9-9--|-7-7-7-7-7-7-7-7--|
Ab|------------------|-5-5-5-5-5-5-5-5//|------------------|------------------|
Eb|-0-0-0-0-3-3-3-3--|------------------|------------------|------------------|
    1 + 2 + 3 + 4 +    1 + 2 + 3 + 4 +    1 + 2 + 3 + 4 +    1 + 2 + 3 + 4 +

Verse

Gb|------------------|------------------|------------------|------------------|
Db|------------------|------------------|------------------|------------------|
Ab|------------------|------------------|-5-5-5-5-5-5-5-5--|-3-3-3-3-3-3-5-5--|
Eb|-0-0-0-0-0-0-0-0--|-3-3-3-3-3-3-3-3--|------------------|------------------|
    1 + 2 + 3 + 4 +    1 + 2 + 3 + 4 +    1 + 2 + 3 + 4 +    1 + 2 + 3 + 4 +

Gb|------------------|------------------|------------------|------------------|
Db|------------------|------------------|------------------|------------------|
Ab|------------------|-------------2-3--|-5-5-5-5-5---7-5--|-3-3-3-3-3-3-5-5--|
Eb|-0-0-0-0-0-0-0-0--|-3-3-3-3-3-5------|-----------0------|------------------|
    1 + 2 + 3 + 4 +    1 + 2 + 3 + 4 +    1 + 2 + 3 + 4 +    1 + 2 + 3 + 4 +

Gb|------------------|------------------|------------------|------------------|
Db|------------------|------------------|------------------|------------------|
Ab|------------------|------------------|-5-5-5-5-5---7-5--|-3-3-3-3-3-3-5-5--|
Eb|-0-0-0-0-0-0-0-0--|-3-3-3-3-3-3-2-0--|-----------0------|------------------|
    1 + 2 + 3 + 4 +    1 + 2 + 3 + 4 +    1 + 2 + 3 + 4 +    1 + 2 + 3 + 4 +

Gb|------------------|------------------|------------------|------------------|
Db|------------------|------------------|------------------|------------------|
Ab|------------------|-------------2-3--|-5-5-5-5-5---7-5--|-3-3-3-3-3-3/15\\-|
Eb|-0-0-0-0-0-0-0-0--|-3-3-3-3-3-5------|-----------0------|------------------|
    1 + 2 + 3 + 4 +    1 + 2 + 3 + 4 +    1 + 2 + 3 + 4 +    1 + 2 + 3 + 4 +

Pre-Chorus

Gb|------------------|------------------|------------------|------------------|
Db|------------------|------------------|------------------|-1212121010109-9--|
Ab|-3-3-3-3-3-3-3-3--|-3-3-3-3-3-3-3-3--|-5-5-5-5-5-5-5-5/-|------------------|
Eb|------------------|------------------|------------------|------------------|
    1 + 2 + 3 + 4 +    1 + 2 + 3 + 4 +    1 + 2 + 3 + 4 +    1 + 2 + 3 + 4 +

Gb|------------------|------------------|------------------|------------------|
Db|------------------|------------------|------------------|------------------|
Ab|-3-3-3-3-3-3-3-3--|-3-3-3-3-3-3-3-3--|-5-5-5-5-5-5-5-5--|-------5-5--------|
Eb|------------------|------------------|------------------|-3-3-3------------|
    1 + 2 + 3 + 4 +    1 + 2 + 3 + 4 +    1 + 2 + 3 + 4 +    1 + 2 + 3 + 4 +

Chorus

Gb|------------------|------------------|------------------|------------------|
Db|------------------|------------------|------------------|------------------|
Ab|------------------|-5-5-5-5-5-5-5-5--|-3-3-3-3----------|-5-5-5-5-5-5-5-5--|
Eb|-0-0-0-0-3-3-3-3--|------------------|---------3-3-3-3--|------------------|
    1 + 2 + 3 + 4 +    1 + 2 + 3 + 4 +    1 + 2 + 3 + 4 +    1 + 2 + 3 + 4 +

Gb|------------------|------------------|------------------|------------------|
Db|------------------|------------------|------------------|---------7-7-5-0--|
Ab|------------------|-5-5-5-5-5-5-5-5--|-3-3-3-3-----0-0--|-5-5-5-5----------|
Eb|-0-0-0-0-3-3-3-3--|------------------|---------3-3------|------------------|
    1 + 2 + 3 + 4 +    1 + 2 + 3 + 4 +    1 + 2 + 3 + 4 +    1 + 2 + 3 + 4 +

Bridge

Gb|------------------|------------------|------------------|------------------|
Db|------------------|---------4-4-5-5--|------------------|---------4-4-5-5--|
Ab|-3-3-3-3-3-3-3-3--|-3-3-3-3----------|-5-5-5-5-5-5-5-5--|-5-5-5-5----------|
Eb|------------------|------------------|------------------|------------------|
    1 + 2 + 3 + 4 +    1 + 2 + 3 + 4 +    1 + 2 + 3 + 4 +    1 + 2 + 3 + 4 +

Gb|------------------|------------------|-------------4-5--|-7-7-7-5-5-5-4-4--|
Db|------------------|---------------4--|-5-5-5-5-5-5------|------------------|
Ab|-7-7-7-7-7-7-7-7--|-7-7-7-7-7-7-7----|------------------|------------------|
Eb|------------------|------------------|------------------|------------------|
    1 + 2 + 3 + 4 +    1 + 2 + 3 + 4 +    1 + 2 + 3 + 4 +    1 + 2 + 3 + 4 +

Gb|------------------|------------------|------------------|------------------|
Db|------------------|---------4-4-5-5--|------------------|---------4-4-5-5--|
Ab|-3-3-3-3-3-3-3-3--|-3-3-3-3----------|-5-5-5-5-5-5-5-5--|-5-5-5-5----------|
Eb|------------------|------------------|------------------|------------------|
    1 + 2 + 3 + 4 +    1 + 2 + 3 + 4 +    1 + 2 + 3 + 4 +    1 + 2 + 3 + 4 +

Gb|------------------|------------------|------------------|------------------|
Db|------------------|---------------4--|-5-5-5-5-5-5-5-5--|------------------|
Ab|-7-7-7-7-7-7-7-7--|-7-7-7-7-7-7-7----|------------------|-2-2-2-3-3-3-5-5--|
Eb|------------------|------------------|------------------|------------------|
    1 + 2 + 3 + 4 +    1 + 2 + 3 + 4 +    1 + 2 + 3 + 4 +    1 + 2 + 3 + 4 +

Gb|------------------|------------------|------------------|------------------|
Db|------------------|------------------|------------------|---------4-4-5-5--|
Ab|-3-3-3-3-3-3-3-3--|-3-3-3-3----------|-5-5-5-5-5-5-5-5--|-5-5-5-5----------|
Eb|------------------|---------2-2-3-3--|------------------|------------------|
    1 + 2 + 3 + 4 +    1 + 2 + 3 + 4 +    1 + 2 + 3 + 4 +    1 + 2 + 3 + 4 +

Gb|------------------|------------------|------------------|------------------|
Db|------------------|---------------4--|-5-5-5-5-5-5-5-5--|-5-5-5-5-5-5-5-5--|
Ab|-7-7-7-7-7-7-7-7--|-7-7-7-7-7-7-7\---|------------------|------------------|
Eb|------------------|------------------|------------------|------------------|
    1 + 2 + 3 + 4 +    1 + 2 + 3 + 4 +    1 + 2 + 3 + 4 +    1 + 2 + 3 + 4 +

Gb|------------------|------------------|------------------|------------------|
Db|------------------|------------------|------------------|------------------|
Ab|-3-3-3---3-3-3----|-3-3-3---3--------|-5----------------|------------------|
Eb|------------------|-----------3---3--|------------------|------------------|
    1 + 2 + 3 + 4 +    1 + 2 + 3 + 4 +    1 + 2 + 3 + 4 +    1 + 2 + 3 + 4 +

Bridge Two

Gb|------------------|------------------|------------------|------------------|
Db|------------------|------------------|------------------|------------------|
Ab|------------------|------------------|------------------|------------------|
Eb|------------------|------------------|------------------|------------------|
    1 + 2 + 3 + 4 +    1 + 2 + 3 + 4 +    1 + 2 + 3 + 4 +    1 + 2 + 3 + 4 +

Gb|------------------|------------------|------------------|------------------|
Db|------------------|------------------|------------------|------------------|
Ab|------------------|------------------|------------------|------------------|
Eb|------------------|------------------|------------------|------------------|
    1 + 2 + 3 + 4 +    1 + 2 + 3 + 4 +    1 + 2 + 3 + 4 +    1 + 2 + 3 + 4 +

Chorus

Gb|------------------|------------------|------------------|------------------|
Db|------------------|------------------|------------------|------------------|
Ab|------------------|-5-5-5-5-5-5-5-5--|-3-3-3-3----------|-5-5-5-5-5-5-5-5--|
Eb|-0-0-0-0-3-3-3-3--|------------------|---------3-3-3-3--|------------------|
    1 + 2 + 3 + 4 +    1 + 2 + 3 + 4 +    1 + 2 + 3 + 4 +    1 + 2 + 3 + 4 +

Gb|------------------|------------------|------------------|------------------|
Db|------------------|------------------|------------------|------------------|
Ab|------------------|-5-5-5-5-5-5-5-5--|-3-3-3-3-----0-0--|-5----------------|
Eb|-0-0-0-0-3-3-3-3--|------------------|---------3-3------|------------------|
    1 + 2 + 3 + 4 +    1 + 2 + 3 + 4 +    1 + 2 + 3 + 4 +    1 + 2 + 3 + 4 +

Gb|------------------|------------------|------------------|------------------|
Db|------------------|------------------|------------------|------------------|
Ab|------------------|-5-5-5-5-5-5-5-5--|-3-3-3-3----------|-5-5-5-5-5-5-5-5--|
Eb|-0-0-0-0-3-3-3-3--|------------------|---------3-3-3-3--|------------------|
    1 + 2 + 3 + 4 +    1 + 2 + 3 + 4 +    1 + 2 + 3 + 4 +    1 + 2 + 3 + 4 +


Gb|------------------|------------------|------------------|------------------|
Db|------------------|------------------|------------------|------------------|
Ab|------------------|-5-5-5-5-5-5-5-5--|-3-------2--------|-0----------------|
Eb|-0-0-0-0-3-3-3-3--|------------------|------------------|------------------|
    1 + 2 + 3 + 4 +    1 + 2 + 3 + 4 +    1 + 2 + 3 + 4 +    1 + 2 + 3 + 4 +

            
            
Suggest correction
Creating personal tab
Creating personal tab
You can edit any tab online and save it as your Personal.

You can edit, replace or remove any tab part or add personal notes – all changes will be seen only by you.

Personal tabs can be accessed anytime from any device, even offline.
Learn more »
comments
print report bad tab
7 comments total. Showing first comments.
+3 reply
JDizzla 50 Oct 18, 2008 05:25 PM

pretty damn good ;)

-1 reply
jnerps 31 Dec 05, 2008 02:36 PM

tab a goddam guitar tab u douche

+2 reply
Lemurs4mangos 1,616 Jan 20, 2009 04:40 PM

Oh my god, what retards...
Maybe he plays bass @$$ hole.
5*'s man, sorry it didn't move it up from 3...
Just kuz of Jnerps

guest
You may want to rate the tab now too:
select rating
Wanna post a correction for this tab? Suggest correction