Oops, an error
Loading. Please wait.
We have an official Give It All tab made by UG professional guitarists. Check out the tab »
×
1,901 views 3 this week
1 commentread comment
1 2 3 4 5
x 6
add to favorites
×
Save as Personal and add changes to this tab that will be seen only by you. Learn more ›
×
You can save this tab as Personal to edit and correct it or add notes. All changes will be seen only by you. Learn more »
launch autoscroll
font size
0
reset
how to read this tab
guitar tuner
backing track
0:00
0:00
edit
Autoscroll
slow
fast
+/-
esc
set tempo
stop
RISE AGAINST

GIVE IT ALL

Db-Ab-Db-Gb-Bb-Eb

tabbed by andherembrace


played- 

https://drive.google.com/file/d/0B1AHRImLJJTYVlZWSWRmRWdVcjA/edit?usp=sharing





----------------------------------------|
----------------------------------------|
----------------------------------------|
-8----4----7----5----8----4----7----5---|
-5----5----5----5----5----5----5----5---|
----------------------------------------|





0:09

------------------------------------------------------------------|
------------------------------------------------------------------|
-------------------------8-8-8-8-----------------8-8-8-8-10101010-|
-------------------------x-x-x-x-----------------x-x-x-x-x-x-x-x--|
-5-5-x-x-5-5-x-x-5-5-x-x-6-6-6-6-5-5-x-x-5-5-x-x-6-6-6-6-8-8-8-8--|
-3-3-x-x-3-3-x-x-3-3-x-x---------3-3-x-x-3-3-x-x------------------|
     H H     H H     H H             H H     H H

------------------------------------------------------------------|
------------------------------------------------------------------|
-------------------------8-8-8-8-----------------8-8-8-8-10101010-|
-------------------------x-x-x-x-----------------x-x-x-x-x-x-x-x--|
-5-5-x-x-5-5-x-x-5-5-x-x-6-6-6-6-5-5-x-x-5-5-x-x-6-6-6-6-8-8-8-8--|
-3-3-x-x-3-3-x-x-3-3-x-x---------3-3-x-x-3-3-x-x------------------|
     H H     H H     H H             H H     H H



0:18

------------------------------------------------------------------|
------------------------------------------------------------------|
-------------------------8-8-8-8-----------------8-8-8-8-10101010-|
-------------------------x-x-x-x-----------------x-x-x-x-x-x-x-x--|
-5-5-5-3-5-5-5-3-5-5-5-3-6-6-6-6-5-5-5-3-5-5-5-3-6-6-6-6-8-8-8-8--|
-3-3-3-1-3-3-3-1-3-3-3-1---------3-3-3-1-3-3-3-1------------------|


------------------------------------------------------------------|
------------------------------------------------------------------|
-------------------------8-8-8-8-----------------8-8-8-8-10101010-|
-------------------------x-x-x-x-----------------x-x-x-x-x-x-x-x--|
-5-5-5-3-5-5-5-3-5-5-5-3-6-6-6-6-5-5-5-3-5-5-5-3-6-6-6-6-8-8-8-8--|
-3-3-3-1-3-3-3-1-3-3-3-1---------3-3-3-1-3-3-3-1------------------|





0:28

-----------------------------------------------------------------|
-----------------------------------------------------------------|
-----------------------------------------------------------------|
-8--8-8-8-8-8--8--8-8--8--8-8-8--3--3-3-3-3-3--3--3-3--3--3-3-3--|
-8--8-8-8-8-8--8--8-8--8--8-8-8--3--3-3-3-3-3--3--3-3--3--3-3-3--|
-6--6-6-6-6-6--6--6-6--6--6-6-6--1--1-1-1-1-1--1--1-1--1--1-1-1--|


-----------------------------------------------------------------|
-----------------------------------------------------------------|
---------------------------------8--8-8-8-8-8--8--8-8--8--8-8-8--|
-5--5-5-5-5-5--5--5-5--5--5-5-5--x--x-x-x-x-x--x--x-x--x--x-x-x--|
-5--5-5-5-5-5--5--5-5--5--5-5-5--6--6-6-6-6-6--6--6-6--6--6-6-6--|
-3--3-3-3-3-3--3--3-3--3--3-3-3----------------------------------|


-----------------------------------------------------------------|
-----------------------------------------------------------------|
-----------------------------------------------------------------|
-8--8-8-8-8-8--8--8-8--8--8-8-8--3--3-3-3-3-3--3--3-3--3--3-3-3--|
-8--8-8-8-8-8--8--8-8--8--8-8-8--3--3-3-3-3-3--3--3-3--3--3-3-3--|
-6--6-6-6-6-6--6--6-6--6--6-6-6--1--1-1-1-1-1--1--1-1--1--1-1-1--|


-----------------------------------------------------------------|
-----------------------------------------------------------------|
---------------------------------8--8-8-8-8-8--8--8-8--8--8-8-8--|
-5--5-5-5-5-5--5--5-5--5--5-5-5--x--x-x-x-x-x--x--x-x--x--x-x-x--|
-5--5-5-5-5-5--5--5-5--5--5-5-5--6--6-6-6-6-6--6--6-6--6--6-6-6--|
-3--3-3-3-3-3--3--3-3--3--3-3-3----------------------------------|




----------------------------------|
----------------------------------|
----------------------------------|
----------------------------------|
-5-5-x-x-5-5-x-x-5-5-x-x-5-5-x-x--|
-3-3-x-x-3-3-x-x-3-3-x-x-3-3-x-x--|
     H H     H H     H H     H H


0:49

------------------------------------------------------------------|
------------------------------------------------------------------|
-------------------------8-8-8-8-----------------8-8-8-8-10101010-|
-------------------------x-x-x-x-----------------x-x-x-x-x-x-x-x--|
-5-5-x-x-5-5-x-x-5-5-x-x-6-6-6-6-5-5-x-x-5-5-x-x-6-6-6-6-8-8-8-8--|
-3-3-x-x-3-3-x-x-3-3-x-x---------3-3-x-x-3-3-x-x------------------|
     H H     H H     H H             H H     H H

------------------------------------------------------------------|
------------------------------------------------------------------|
-------------------------8-8-8-8-----------------8-8-8-8-10101010-|
-------------------------x-x-x-x-----------------x-x-x-x-x-x-x-x--|
-5-5-x-x-5-5-x-x-5-5-x-x-6-6-6-6-5-5-x-x-5-5-x-x-6-6-6-6-8-8-8-8--|
-3-3-x-x-3-3-x-x-3-3-x-x---------3-3-x-x-3-3-x-x------------------|
     H H     H H     H H             H H     H H




------------------------------------------------------------------|
------------------------------------------------------------------|
-------------------------8-8-8-8-----------------8-8-8-8-10101010-|
-------------------------x-x-x-x-----------------x-x-x-x-x-x-x-x--|
-------------------------6-6-6-6-----------------6-6-6-6-8-8-8-8--|
-3-3-3-1-3-3-3-1-3-3-3-1---------3-3-3-1-3-3-3-1------------------|
 * * * * * * * * * * * *         * * * * * * * *

------------------------------------------------------------------|
------------------------------------------------------------------|
-------------------------8-8-8-8-----------------8-8-8-8-10101010-|
-------------------------x-x-x-x-----------------x-x-x-x-x-x-x-x--|
-------------------------6-6-6-6-----------------6-6-6-6-8-8-8-8--|
-3-3-3-1-3-3-3-1-3-3-3-1---------3-3-3-1-3-3-3-1------------------|
 * * * * * * * * * * * *         * * * * * * * *




1:08

-----------------------------------------------------------------|
-----------------------------------------------------------------|
-----------------------------------------------------------------|
-8--8-8-8-8-8--8--8-8--8--8-8-8--3--3-3-3-3-3--3--3-3--3--3-3-3--|
-8--8-8-8-8-8--8--8-8--8--8-8-8--3--3-3-3-3-3--3--3-3--3--3-3-3--|
-6--6-6-6-6-6--6--6-6--6--6-6-6--1--1-1-1-1-1--1--1-1--1--1-1-1--|


-----------------------------------------------------------------|
-----------------------------------------------------------------|
---------------------------------8--8-8-8-8-8--8--8-8--8--8-8-8--|
-5--5-5-5-5-5--5--5-5--5--5-5-5--x--x-x-x-x-x--x--x-x--x--x-x-x--|
-5--5-5-5-5-5--5--5-5--5--5-5-5--6--6-6-6-6-6--6--6-6--6--6-6-6--|
-3--3-3-3-3-3--3--3-3--3--3-3-3----------------------------------|


-----------------------------------------------------------------|
-----------------------------------------------------------------|
-----------------------------------------------------------------|
-8--8-8-8-8-8--8--8-8--8--8-8-8--3--3-3-3-3-3--3--3-3--3--3-3-3--|
-8--8-8-8-8-8--8--8-8--8--8-8-8--3--3-3-3-3-3--3--3-3--3--3-3-3--|
-6--6-6-6-6-6--6--6-6--6--6-6-6--1--1-1-1-1-1--1--1-1--1--1-1-1--|


-------------------------------------------------------|
-------------------------------------------------------|
---------------------------------8--8-8-8-8-8-8--------|
-5--5-5-5-5-5--5--5-5--5--5-5-5--x--x-x-x-x-x-x--------|
-5--5-5-5-5-5--5--5-5--5--5-5-5--6--6-6-6-6-6-6--5--3--|
-3--3-3-3-3-3--3--3-3--3--3-3-3------------------6--5--|




1:26

----------------------------------------------------|
----------------------------------------------------|
--------------------------8-8-8--8-8--8-8--8--8-8---|
-5-5-5--5-5--5-5--5--5-5--8-8-8--8-8--8-8--8--8-8---|
-5-5-5--5-5--5-5--5--5-5--6-6-6--6-6--6-6--6--6-6---|
-3-3-3--3-3--3-3--3--3-3--6-6-6--6-6--6-6--6--6-6---|


----------------------------------------------------|
----------------------------------------------------|
----------------------------------------------------|
-3-3-3--3-3--3-3--3--3-3----------------------------|
-3-3-3--3-3--3-3--3--3-3--5-5-5--5-3--3-3--3--3-3---|
-1-1-1--1-1--1-1--1--1-1--6-6-6--6-5--5-5--5--5-5---|



----------------------------------------------------|
----------------------------------------------------|
--------------------------8-8-8--8-8--8-8--8--8-8---|
-5-5-5--5-5--5-5--5--5-5--8-8-8--8-8--8-8--8--8-8---|
-5-5-5--5-5--5-5--5--5-5--6-6-6--6-6--6-6--6--6-6---|
-3-3-3--3-3--3-3--3--3-3--6-6-6--6-6--6-6--6--6-6---|


----------------------------------------------------|
----------------------------------------------------|
----------------------------------------------------|
-3-3-3--3-3--3-3--3--3-3----------------------------|
-3-3-3--3-3--3-3--3--3-3--5-5-5--5-3--3-3--3--3-3---|
-1-1-1--1-1--1-1--1--1-1--6-6-6--6-5--5-5--5--5-5---|



1:45

-----------------------------------------------------------------|
-----------------------------------------------------------------|
-----------------------------------------------------------------|
-----------------------------------------------------------------|
-5-5-5-5-5-5-5-5-6-6-6-6-6-6-6-6-3-3-3-3-3-3-3-3-5-5-5-5-3-3-3-3-|
-3-3-3-3-3-3-3-3-6-6-6-6-6-6-6-6-1-1-1-1-1-1-1-1-6-6-6-6-5-5-5-5-|
 * * * * * * * * * * * * * * * * * * * * * * * * * * * * * * * *

----------------------------------------------------|
----------------------------------------------------|
----------------------------------------------------|
----------------------------------------------------|
-5-5-5-5-5-5-5-5-6-6-6-6-6-6-6-6-3-3-3-3-3-3-3-3-3--|
-3-3-3-3-3-3-3-3-6-6-6-6-6-6-6-6-1-1-1-1-1-1-1-1-1--|
 * * * * * * * * * * * * * * * * * * * * * * * * * 




2:04

-----------------------------------------------------------------|
-----------------------------------------------------------------|
-----------------------------------------------------------------|
-8--8-8-8-8-8--8--8-8--8--8-8-8--3--3-3-3-3-3--3--3-3--3--3-3-3--|
-8--8-8-8-8-8--8--8-8--8--8-8-8--3--3-3-3-3-3--3--3-3--3--3-3-3--|
-6--6-6-6-6-6--6--6-6--6--6-6-6--1--1-1-1-1-1--1--1-1--1--1-1-1--|


-----------------------------------------------------------------|
-----------------------------------------------------------------|
---------------------------------8--8-8-8-8-8--8--8-8--8--8-8-8--|
-5--5-5-5-5-5--5--5-5--5--5-5-5--x--x-x-x-x-x--x--x-x--x--x-x-x--|
-5--5-5-5-5-5--5--5-5--5--5-5-5--6--6-6-6-6-6--6--6-6--6--6-6-6--|
-3--3-3-3-3-3--3--3-3--3--3-3-3----------------------------------|


-----------------------------------------------------------------|
-----------------------------------------------------------------|
-----------------------------------------------------------------|
-8--8-8-8-8-8--8--8-8--8--8-8-8--3--3-3-3-3-3--3--3-3--3--3-3-3--|
-8--8-8-8-8-8--8--8-8--8--8-8-8--3--3-3-3-3-3--3--3-3--3--3-3-3--|
-6--6-6-6-6-6--6--6-6--6--6-6-6--1--1-1-1-1-1--1--1-1--1--1-1-1--|


-----------------------------------------------------------------|
-----------------------------------------------------------------|
---------------------------------8--8-8-8-8-8--8--8-8--8--8-8-8--|
-5--5-5-5-5-5--5--5-5--5--5-5-5--x--x-x-x-x-x--x--x-x--x--x-x-x--|
-5--5-5-5-5-5--5--5-5--5--5-5-5--6--6-6-6-6-6--6--6-6--6--6-6-6--|
-3--3-3-3-3-3--3--3-3--3--3-3-3----------------------------------|



2:22


GT1
------------------------------------------------------------------|
------------------------------------------------------------------|
------------------------------------------------------------------|
-8-8-8-8-8-8-8-8-8-8-8-8-8-8-8-8-3-3-3-3-3-3-3-3-3-3-3-3-3-3-3-3--|
-8-8-8-8-8-8-8-8-8-8-8-8-8-8-8-8-3-3-3-3-3-3-3-3-3-3-3-3-3-3-3-3--|
-6-6-6-6-6-6-6-6-6-6-6-6-6-6-6-6-1-1-1-1-1-1-1-1-1-1-1-1-1-1-1-1--|

GT2
------------------------------------------------------------------|
11111111111111111111111111111111-13131313131313131313131313131313-|
-X-X-X-X-X-X-X-X-X-X-X-X-X-X-X-X--X-X-X-X-X-X-X-X-X-X-X-X-X-X-X-X-|
-8-8-8-8-8-8-8-8-8-8-8-8-8-8-8-8-10101010101010101010101010101010-|
------------------------------------------------------------------|
------------------------------------------------------------------|



GT1
-----------------------------------------------------------------|
-----------------------------------------------------------------|
---------------------------------8-8-8-8-8-8-8-8-8-8-8-8-8-8-8-8-|
-5-5-5-5-5-5-5-5-5-5-5-5-5-5-5-5-X-X-X-X-X-X-X-X-X-X-X-X-X-X-X-X-|
-5-5-5-5-5-5-5-5-5-5-5-5-5-5-5-5-6-6-6-6-6-6-6-6-6-6-6-6-6-6-6-6-|
-3-3-3-3-3-3-3-3-3-3-3-3-3-3-3-3---------------------------------|

GT2
-------------------------------------------------------------------|
151515151515151515151515-16161616-18181818181818181818181818181818-|
-X-X-X-X-X-X-X-X-X-X-X-X--X-X-X-X--X-X-X-X-X-X-X-X-X-X-X-X-X-X-X-X-|
121212121212121212121212-13131313-15151515151515151515151515151515-|
-------------------------------------------------------------------|
-------------------------------------------------------------------|


2:32

GT1
------------------------------------------------------------------|
------------------------------------------------------------------|
------------------------------------------------------------------|
-8-8-8-8-8-8-8-8-8-8-8-8-8-8-8-8-3-3-3-3-3-3-3-3-3-3-3-3-3-3-3-3--|
-8-8-8-8-8-8-8-8-8-8-8-8-8-8-8-8-3-3-3-3-3-3-3-3-3-3-3-3-3-3-3-3--|
-6-6-6-6-6-6-6-6-6-6-6-6-6-6-6-6-1-1-1-1-1-1-1-1-1-1-1-1-1-1-1-1--|

GT2
------------------------------------------------------------------|
11111111111111111111111111111111-13131313131313131313131313131313-|
-X-X-X-X-X-X-X-X-X-X-X-X-X-X-X-X--X-X-X-X-X-X-X-X-X-X-X-X-X-X-X-X-|
-8-8-8-8-8-8-8-8-8-8-8-8-8-8-8-8-10101010101010101010101010101010-|
------------------------------------------------------------------|
------------------------------------------------------------------|



GT1
-------------------------------------------------------------------|
-------------------------------------------------------------------|
---------------------------------8-8-8-8-8-8-8-8-8-8-8-8-8-8-8-8---|
-5-5-5-5-5-5-5-5-5-5-5-5-5-5-5-5-X-X-X-X-X-X-X-X-X-X-X-X-X-X-X-X-8-|
-5-5-5-5-5-5-5-5-5-5-5-5-5-5-5-5-6-6-6-6-6-6-6-6-6-6-6-6-6-6-6-6-8-|
-3-3-3-3-3-3-3-3-3-3-3-3-3-3-3-3---------------------------------6-|

GT2
------------------------------------------------------------------------|
13-15-15151515151515151515-16161616-1818181818181818-1515151515151515-11|
-X--X--X-X-X-X-X-X-X-X-X-X--X-X-X-X--X-X-X-X-X-X-X-X--X-X-X-X-X-X-X-X-X-|
10/12-12121212121212121212-13131313-1515151515151515-1212121212121212-8-|
------------------------------------------------------------------------|
------------------------------------------------------------------------|

            
            
Suggest correction
Creating personal tab
Creating personal tab
You can edit any tab online and save it as your Personal.

You can edit, replace or remove any tab part or add personal notes – all changes will be seen only by you.

Personal tabs can be accessed anytime from any device, even offline.
Learn more »
comments
print report bad tab
1 comment total.
0 reply
calcubytes 10 Mar 10, 2016 05:42 AM

I just need to know if the H means harmonics. otherwise superb bruh!

guest
You may want to rate the tab now too:
select rating
Wanna post a correction for this tab? Suggest correction