Oops, an error
Loading. Please wait.
We have an official Good Left Undone tab made by UG professional guitarists. Check out the tab »
×
1,441 views 1 this week
no commentswrite comment
1 2 3 4 5
2 more votes to show rating
add to favorites
×
Save as Personal and add changes to this tab that will be seen only by you. Learn more ›
×
You can save this tab as Personal to edit and correct it or add notes. All changes will be seen only by you. Learn more »
launch autoscroll
font size
0
reset
guitar tuner
edit
Autoscroll
slow
fast
+/-
esc
set tempo
stop
Author
this is just a correction on my other one for this song.  I found some mistakes recently 
to the song.
i know it's in half step tuning.  rise against always plays in it.  you can convert it 
standard if you want cuz it works in that too.  this is just the way joe plays it.  i've 
a few videos of them live and you can tell.  anyways:

Key: C# Minor - C#,D#,E,F#,G#,A,B,C#
4/4

Play with a pick near the bridge on a precision bass for best tone.

Legend:
* = stop short
/ = slide up
v = downstroke

Guitar Intro

Verse 1:
|-----------------------------------------------------------------|
|-----------------------------------------------------------------|
|-5-5-5-5-5-5-5-5-5-5-5-5-5-5-5*--1-1-1-1-1-1-1-1-1-1-1-1-1-1-1-1-|
|-----------------------------------------------------------------|

  1   +   2   +   3   +   4   +   1   +   2   +   3   +   4   +

|------------------------------------------------------------------|
|------------------------------------------------------------------|
|-8*--8-8-8-8-8-8-3*--3-3-3-3-3-3-10*-1010101010101010121213121212-|
|------------------------------------------------------------------|x2

  1   +   2   +   3   +   4   +   1   +   2   +   3   +   4   +

Prechorus:
|------------------------------------------------------------------|
|------------------------------------------------------------------|
|-1313131312121212101010103-3-3-3-5---5-5-5-5---5---5---5---5-5-5/-|
|------------------------------------------------------------------|x2

  1   +   2   +   3   +   4   +   1   +   2   +   3   +   4   +

|-----------------------------------------------------------------|
|-----------------------------------------------------------------|
|-1313131312121212101010103-3-3-3---------------------------------|
|---------------------------------1---1-1-1-1-1-1-3---3-3-3-3-3-3-|

  1   +   2   +   3   +   4   +   1   +   2   +   3   +   4   +

|----------------------------------|
|----------------------------------|
|----------------------------------|
|-6-6-6-6-5-5-5-5-3*---------------|

  1   +   2   +   3   +   4   +

Chorus 1:
|------------------------------------------------------------------|
|------------------------------------------------------------------|
|-5-5-5-5-5-5-5-5-----------------3-3-3-3-3-3-3-3-1-1-1-1-1-1-1-1--|
|-----------------1-1-1-1-1-1-1-1----------------------------------|
  v v v v v v v v v v v v v v v v v v v v v v v v v v v v v v v v
  1 + 2 + 3 + 4 + 1 + 2 + 3 + 4 + 1 + 2 + 3 + 4 + 1 + 2 + 3 + 4 +

|------------------------------------------------------------------|
|------------------------------------------------------------------|
|-5-5-5-5-5-5-5-5-----------------3-3-3-3-3-3-3-3-1-1-1-1-1*-------|
|-----------------1-1-1-1-1-1-1-1----------------------------------|
  v v v v v v v v v v v v v v v v v v v v v v v v v v v v v
  1 + 2 + 3 + 4 + 1 + 2 + 3 + 4 + 1 + 2 + 3 + 4 + 1 + 2 + 3 + 4 +

Guitar Intro

Verse 2:
|-----------------------------------------------------------------|
|-----------------------------------------------------------------|
|-5-5-5-5-5-5-5-5-5-5-5-5-5-5-5*--1-1-1-1-1-1-1-1-1-1-1-1-1-1-1-1-|
|-----------------------------------------------------------------|

  1   +   2   +   3   +   4   +   1   +   2   +   3   +   4   +

|------------------------------------------------------------------|
|------------------------------------------------------------------|
|-8*--8-8-8-8-8-8-3*--3-3-3-3-3-3-10*-1010101010101010121213121212-|
|------------------------------------------------------------------|x2

  1   +   2   +   3   +   4   +   1   +   2   +   3   +   4   +

Prechorus:
|------------------------------------------------------------------|
|------------------------------------------------------------------|
|-1313131312121212101010103-3-3-3-5---5-5-5-5---5---5---5---5-5-5/-|
|------------------------------------------------------------------|x2

  1   +   2   +   3   +   4   +   1   +   2   +   3   +   4   +

|-----------------------------------------------------------------|
|-----------------------------------------------------------------|
|-1313131312121212101010103-3-3-3---------------------------------|
|---------------------------------1---1-1-1-1-1-1-3---3-3-3-3-3-3-|

  1   +   2   +   3   +   4   +   1   +   2   +   3   +   4   +

|----------------------------------|
|----------------------------------|
|----------------------------------|
|-6-6-6-6-5-5-5-5-3*---------------|

  1   +   2   +   3   +   4   +

Chorus 2:
|------------------------------------------------------------------|
|------------------------------------------------------------------|
|-5-5-5-5-5-5-5-5-----------------3-3-3-3-3-3-3-3-1-1-1-1-1-1-1-1--|
|-----------------1-1-1-1-1-1-1-1----------------------------------|x2
  v v v v v v v v v v v v v v v v v v v v v v v v v v v v v v v v
  1 + 2 + 3 + 4 + 1 + 2 + 3 + 4 + 1 + 2 + 3 + 4 + 1 + 2 + 3 + 4 +

Solo:
|------------------------------------------------------------------|
|------------------------------------------------------------------|
|-5-5-5-5-5-5-5-5-----------1-3/5-3-3-3-3-5-5-3-3-1-1-1-1-1-1-1-1--|
|-----------------1-1-1-1-1----------------------------------------|x2
  v v v v v v v v v v v v v v v v v v v v v v v v v v v v v v v v
  1 + 2 + 3 + 4 + 1 + 2 + 3 + 4 + 1 + 2 + 3 + 4 + 1 + 2 + 3 + 4 +

Bridge:
|-----------------------------------------------------------------|
|-----------------------------------------------------------------|
|-5-5---5-5-5---5-----------------3-3---3-3-3---3-1-1---1-1-1---1-|
|-----------------1-1---1-1-1---1---------------------------------|

  1 + 2 + 3 + 4 + 1 + 2 + 3 + 4 + 1 + 2 + 3 + 4 + 1 + 2 + 3 + 4 +

|-----------------------------------------------------------------|
|-----------------------------------------------------------------|
|-5-5---5-5-5---5-----------------3-3---3-3-3---3-1-1-1-1-1*------|
|-----------------1-1---1-1-1---1---------------------------------|

  1 + 2 + 3 + 4 + 1 + 2 + 3 + 4 + 1 + 2 + 3 + 4 + 1 + 2 + 3 + 4 +

Chorus 3:
|------------------------------------------------------------------|
|------------------------------------------------------------------|
|-5-5-5-5-5-5-5-5-----------------3-3-3-3-3-3-3-3-1-1-1-1-1-1-1-1--|
|-----------------1-1-1-1-1-1-1-1----------------------------------|x2
  v v v v v v v v v v v v v v v v v v v v v v v v v v v v v v v v
  1 + 2 + 3 + 4 + 1 + 2 + 3 + 4 + 1 + 2 + 3 + 4 + 1 + 2 + 3 + 4 +

Final Chorus:
|-----------------------------------------------------------------|
|-----------------------------------------------------------------|
|-5-5-5-5-5-5-5-5-----------1-3/5-3-3-3-3-5-5-3-3-1-1-1-1-1-1-1-1-|
|-----------------1-1-1-1-1---------------------------------------|
  v v v v v v v v v v v v v v v v v v v v v v v v v v v v v v v v
  1 + 2 + 3 + 4 + 1 + 2 + 3 + 4 + 1 + 2 + 3 + 4 + 1 + 2 + 3 + 4 +

|------------------------------------------------------------------|
|------------------------------------------------------------------|
|-5-5-5-5-5-5-5-5-----------1-3/5-3-3-3-3-5-5-3-3-1-1-1-1-1*-------|
|-----------------1-1-1-1-1----------------------------------------|
  v v v v v v v v v v v v v v v v v v v v v v v v v v v v v
  1 + 2 + 3 + 4 + 1 + 2 + 3 + 4 + 1 + 2 + 3 + 4 + 1 + 2 + 3 + 4 +

End

            
            
Suggest correction
Creating personal tab
Creating personal tab
You can edit any tab online and save it as your Personal.

You can edit, replace or remove any tab part or add personal notes – all changes will be seen only by you.

Personal tabs can be accessed anytime from any device, even offline.
Learn more »
Give kudos to tab author, rate the tab!
1 2 3 4 5
comments
print report bad tab
guest
You may want to rate the tab now too:
select rating
Wanna post a correction for this tab? Suggest correction