Oops, an error
Loading. Please wait.

Grammatizator bass

735 views 3 this week
no commentswrite comment
1 2 3 4 5
3 more votes to show rating
add to favorites
×
Save as Personal and add changes to this tab that will be seen only by you. Learn more ›
×
You can save this tab as Personal to edit and correct it or add notes. All changes will be seen only by you. Learn more »
launch autoscroll
font size
0
reset
guitar tuner
edit
Autoscroll
slow
fast
+/-
esc
set tempo
stop
-------------------------------------------------------------------------------
			     SONG NAME - Band Name
-------------------------------------------------------------------------------

Tabbed By : This Kid
e-mail: michael_grosse11@hotmail.com

Tuning: Half Step Down (Eb, Ab, Db and Gb)

 
I think this is right, bridge might be slightly off but other than that enjoy!


Intro

Wait for 4 bars

Gb|-----------------|-----------------|-----------------|-----------------|
Db|-----------------|-----------------|-----------------|-----------------|
Ab|-0-1-0-1-441-0-0-|-0-1-0-1-444-4-4-|-0-1-0-1-441-0-0-|-0-1-0-1-444-4-4-|  x 2
Eb|-----------------|-----------------|-----------------|-----------------|
    1 + 2 + 3 + 4 +   1 + 2 + 3 + 4 +   1 + 2 + 3 + 4 +   1 + 2 + 3 + 4 + 

 Verse 1

Gb|-----------------|-----------------|-----------------|-----------------|
Db|-----------------|-----------------|-----------------|-----------------|
Ab|-0-1-0-1-441-0-0-|-0-1-0-1-444-4-4-|-0-1-0-1-441-0-0-|-0-1-0-1-443-1-0-|
Eb|-----------------|-----------------|-----------------|-----------------|
    1 + 2 + 3 + 4 +   1 + 2 + 3 + 4 +   1 + 2 + 3 + 4 +   1 + 2 + 3 + 4 + 

Gb|-----------------|-----------------|-----------------|-----------------|
Db|-----------------|-----------------|-----------------|-----------------|
Ab|-0-1-0-1-441-0-0-|-0-1-0-1-444-4-4-|-0-1-0-1-441-0-0-|-0-1-0-1-444-4-4-|
Eb|-----------------|-----------------|-----------------|-----------------|
    1 + 2 + 3 + 4 +   1 + 2 + 3 + 4 +   1 + 2 + 3 + 4 +   1 + 2 + 3 + 4 + 



 
 Chorus

Gb|-----------------|-----------------|-----------------|-----------------|
Db|-----------------|-----------------|-----------------|-----------------|
Ab|-----------------|-4-4445-4-44-444-|-0-0-000-5-5-555-|-4-4445-4-44-444-|
Eb|-0--0----2--2----|-----------------|-----------------|-----------------|
    1 + 2 + 3 + 4 +   1 + 2 + 3 + 4 +   1 + 2 + 3 + 4 +   1 + 2 + 3 + 4 + 

Gb|-----------------|-----------------|-----------------|-----------------|
Db|-2--2----4--4----|-----------------|-----------------|-----------------|
Ab|-----------------|-4-4445-4-44-444-|-0-0-000-5-5-555-|-4-4445-4-44-444-|
Eb|-----------------|-----------------|-----------------|-----------------|
    1 + 2 + 3 + 4 +   1 + 2 + 3 + 4 +   1 + 2 + 3 + 4 +   1 + 2 + 3 + 4 + 


 Verse 2

Gb|-----------------|-----------------|-----------------|-----------------|
Db|-----------------|-----------------|-----------------|-----------------|
Ab|-0-1-0-1-441-0-0-|-0-1-0-1-444-4-4-|-0-1-0-1-441-0-0-|-0-1-0-1-444-4-4-|
Eb|-----------------|-----------------|-----------------|-----------------|
    1 + 2 + 3 + 4 +   1 + 2 + 3 + 4 +   1 + 2 + 3 + 4 +   1 + 2 + 3 + 4 + 


 Chorus

Gb|-----------------|-----------------|-----------------|-----------------|
Db|-----------------|-----------------|-----------------|-----------------|
Ab|-----------------|-4-4445-4-44-444-|-0-0-000-5-5-555-|-4-4445-4-44-444-|
Eb|-0--0----2--2----|-----------------|-----------------|-----------------|
    1 + 2 + 3 + 4 +   1 + 2 + 3 + 4 +   1 + 2 + 3 + 4 +   1 + 2 + 3 + 4 + 

Gb|-----------------|-----------------|-----------------|
Db|-2--2----4--4----|-----------------|-----------------|
Ab|-----------------|-4-4445-4-44-444-|-0-0-000-5-5-555-|
Eb|-----------------|-----------------|-----------------|
    1 + 2 + 3 + 4 +   1 + 2 + 3 + 4 +   1 + 2 + 3 + 4 +  


 Bridge

Gb|-----------------|-----------------|-----------------|-----------------|
Db|-----------------|-----------------|-----------------|-------------5555|
Ab|-44--44--4-------|-44--44--4-------|-44--44--4-------|-444444445555----|
Eb|----------0--2-1-|----------0--2-2-|----------0--2-1-|-----------------|
    1 + 2 + 3 + 4 +   1 + 2 + 3 + 4 +   1 + 2 + 3 + 4 +   1 + 2 + 3 + 4 + 

Gb|-----------------|-----------------|-----------------|-----------------|
Db|-----------------|-----------------|-----------------|-------------5555|
Ab|-44--44--4-------|-44--44--4-------|-44--44--4-------|-444444445555----|
Eb|----------0--2-1-|----------0--2-2-|----------0--2-1-|-----------------|
    1 + 2 + 3 + 4 +   1 + 2 + 3 + 4 +   1 + 2 + 3 + 4 +   1 + 2 + 3 + 4 + 


 Solo


Gb|-----------------|-----------------|-----------------|-----------------|
Db|-44444444----2222|-44444444--------|44444444----2222-|---------00000000|
Ab|---------2222----|---------22220000|--------2222-----|-00000000--------|
Eb|-----------------|-----------------|-----------------|-----------------|
    1 + 2 + 3 + 4 +   1 + 2 + 3 + 4 +   1 + 2 + 3 + 4 +   1 + 2 + 3 + 4 + 


 Chorus

Gb|-----------------|-----------------|-----------------|-----------------|
Db|-----------------|-----------------|-----------------|-----------------|
Ab|-----------------|-4-4445-4-44-444-|-0-0-000-5-5-555-|-4-4445-4-44-444-|
Eb|-0--0----2--2----|-----------------|-----------------|-----------------|
    1 + 2 + 3 + 4 +   1 + 2 + 3 + 4 +   1 + 2 + 3 + 4 +   1 + 2 + 3 + 4 + 

Gb|-----------------|-----------------|-----------------|-----------------|
Db|-2--2----4--4----|-----------------|-----------------|-----------------|
Ab|-----------------|-4-4445-4-44-444-|-0-0-000-5-5-555-|-4-4445-4-44-444-|
Eb|-----------------|-----------------|-----------------|-----------------|
    1 + 2 + 3 + 4 +   1 + 2 + 3 + 4 +   1 + 2 + 3 + 4 +   1 + 2 + 3 + 4 + 


 Outro

Gb|-----------------|
Db|-----------------|
Ab|---0-0005-5-5554/|
Eb|-----------------|
    1 + 2 + 3 + 4 +    


| /  slide up
| \  slide down
| h  hammer-on
| p  pull-off
| ~  vibrato
| +  harmonic
| x  Mute note
===============================================================================

            
            
Suggest correction
Creating personal tab
Creating personal tab
You can edit any tab online and save it as your Personal.

You can edit, replace or remove any tab part or add personal notes – all changes will be seen only by you.

Personal tabs can be accessed anytime from any device, even offline.
Learn more »
Give kudos to tab author, rate the tab!
1 2 3 4 5
comments
print report bad tab
guest
You may want to rate the tab now too:
select rating
Wanna post a correction for this tab? Suggest correction