Oops, an error
Loading. Please wait.

Hairline Fracture bass

version 1
version 1

Whole song

Interactive

5,962 views 1 this week
no commentswrite comment
1 2 3 4 5
x 3
add to favorites
×
Save as Personal and add changes to this tab that will be seen only by you. Learn more ›
×
You can save this tab as Personal to edit and correct it or add notes. All changes will be seen only by you. Learn more »
launch autoscroll
font size
0
reset
guitar tuner
edit
Autoscroll
slow
fast
+/-
esc
set tempo
stop
Hairline Fracture
Rise Against
Joe Principe - Bass


INTRO 


Gb|------------------|------------------|------------------|------------------|
Db|------------------|------------------|------------------|------------------|
Ab|------------------|------------------|-4---4-4-4-4-4-4--|-4-4-4-4-4-4-4-4--|
Eb|-0----------------|------------------|------------------|------------------|
    1 + 2 + 3 + 4 +    1 + 2 + 3 + 4 +    1 + 2 + 3 + 4 +    1 + 2 + 3 + 4 +    

Gb|------------------|------------------|------------------|--------------------|
Db|------------------|------------------|------------------|--------------------|
Ab|------------------|------------------|-4---4-4-4-4-4-4--|-4-4----------------|
Eb|-0----------------|------------------|------------------|--------------------|
    1 + 2 + 3 + 4 +    1 + 2 + 3 + 4 +    1 + 2 + 3 + 4 +    1 2 3 4 5 6 7 8 9  

Gb|------------------|------------------|------------------|------------------|
Db|------------------|------------------|------------------|------------------|
Ab|------------------|-2-2-2-2-2-2-2-2--|------------------|------------------|
Eb|-4-4-4-4-4-4-4-4--|------------------|-0-0-0-0-0-0-0-0--|-2-2-2-2-2-2-2-2--|
    1 + 2 + 3 + 4 +    1 + 2 + 3 + 4 +    1 + 2 + 3 + 4 +    1 + 2 + 3 + 4 +    

Gb|------------------|------------------|------------------|------------------|
Db|------------------|------------------|------------------|------------------|
Ab|------------------|-2-2-2-2-2-2-2-2--|------------------|------------------|
Eb|-4-4-4-4-4-4-4-4--|------------------|-0-0-0-0-0-0-0-0--|-2----------------|
    1 + 2 + 3 + 4 +    1 + 2 + 3 + 4 +    1 + 2 + 3 + 4 +    1 + 2 + 3 + 4 +

VERSE


Gb|------------------|------------------|------------------|------------------|
Db|------------------|------------------|------------------|------------------|
Ab|------------------|-2-2-2-2-2-2-2-2--|------------------|------------------|
Eb|-4-4-4-4-4-4-4-4--|------------------|-0-0-0-0-0-0-0-0--|-2-2-2-2-2-2-2-2--|
    1 + 2 + 3 + 4 +    1 + 2 + 3 + 4 +    1 + 2 + 3 + 4 +    1 + 2 + 3 + 4 +    

Gb|------------------|------------------|------------------|------------------|
Db|------------------|------------------|------------------|------------------|
Ab|------------------|-2-2-2-2-2-2-2-2--|------------------|------------------|
Eb|-4-4-4-4-4-4-4-4--|------------------|-0-0-0-0-0-0-0-0--|-2-2-2-2-2-2-2-2--|
    1 + 2 + 3 + 4 +    1 + 2 + 3 + 4 +    1 + 2 + 3 + 4 +    1 + 2 + 3 + 4 +    

Gb|------------------|------------------|------------------|------------------|
Db|------------------|------------------|------------------|------------------|
Ab|------------------|-2-2-2-2-2-2-2-2--|------------------|------------------|
Eb|-4-4-4-4-4-4-4-4--|------------------|-0-0-0-0-0-0-0-0--|-2-2-2-2-2-2-2-2--|
    1 + 2 + 3 + 4 +    1 + 2 + 3 + 4 +    1 + 2 + 3 + 4 +    1 + 2 + 3 + 4 +    

Gb|------------------|------------------|------------------|------------------|
Db|------------------|------------------|------------------|------------------|
Ab|------------------|-2-2-2-2-2-2-2-2--|-7-7-7-7-7-7-7-7--|-9-9-9-9-9-9-9----|
Eb|-4-4-4-4-4-4-4-4--|------------------|------------------|---------------0--|
    1 + 2 + 3 + 4 +    1 + 2 + 3 + 4 +    1 + 2 + 3 + 4 +    1 + 2 + 3 + 4 +    

PRE-CHORUS


Gb|------------------|------------------|------------------|------------------|
Db|------------------|------------------|------------------|------------------|
Ab|------------------|---------------4--|---4-4-4-4-4-4-4--|-4-4-4-4-4-4-4----|
Eb|---0-0-0-0-0-0-0--|-0-0-0-0-0-0-0----|------------------|---------------0--|
    1 + 2 + 3 + 4 +    1 + 2 + 3 + 4 +    1 + 2 + 3 + 4 +    1 + 2 + 3 + 4 +   

Gb|------------------|------------------|------------------|------------------|
Db|------------------|------------------|------------------|------------------|
Ab|------------------|---------------4--|---4-4-4-4-4-4-4--|-4----------------|
Eb|---0-0-0-0-0-0-0--|-0-0-0-0-0-0-0----|------------------|---------------4--|
    1 + 2 + 3 + 4 +    1 + 2 + 3 + 4 +    1 + 2 + 3 + 4 +    1 + 2 + 3 + 4 +

CHORUS


Gb|------------------|------------------|------------------|------------------|
Db|------------------|------------------|------------------|------------------|
Ab|------------------|------------------|------------------|------------------|
Eb|-----4---4---4----|-4---4---4---4-2--|-----2---2---2----|-2---2---2-2-2-0--|
    1 + 2 + 3 + 4 +    1 + 2 + 3 + 4 +    1 + 2 + 3 + 4 +    1 + 2 + 3 + 4 +

Gb|------------------|------------------|------------------|------------------|
Db|------------------|------------------|------------------|------------------|
Ab|------------------|---------------2--|---2-2-2-2-2-2-1--|---1-1-1-1-1-1----|
Eb|---0-0-0-0-0-0-0--|-0-0-0-0-0-0-0----|------------------|---------------4--|
    1 + 2 + 3 + 4 +    1 + 2 + 3 + 4 +    1 + 2 + 3 + 4 +    1 + 2 + 3 + 4 +

Gb|------------------|------------------|------------------|------------------|
Db|------------------|------------------|------------------|------------------|
Ab|------------------|------------------|------------------|------------------|
Eb|-----4---4---4----|-4---4---4---4-2--|-----2---2---2----|-2---2---2-2-2-0--|
    1 + 2 + 3 + 4 +    1 + 2 + 3 + 4 +    1 + 2 + 3 + 4 +    1 + 2 + 3 + 4 +

Gb|------------------|------------------|------------------|------------------|
Db|------------------|------------------|------------------|------------------|
Ab|------------------|---------------2--|---2-2-2-2-2-2-4--|---4-4-4-4-4-4----|
Eb|---0-0-0-0-0-0-0--|-0-0-0-0-0-0-0----|------------------|---------------0--|
    1 + 2 + 3 + 4 +    1 + 2 + 3 + 4 +    1 + 2 + 3 + 4 +    1 + 2 + 3 + 4 +

INTERLUDE


Gb|------------------|------------------|------------------|------------------|
Db|------------------|------------------|------------------|------------------|
Ab|------------------|------------------|-4----------------|------------------|
Eb|(0)---------------|------------------|------------------|-2----------------|
    1 + 2 + 3 + 4 +    1 + 2 + 3 + 4 +    1 + 2 + 3 + 4 +    1 + 2 + 3 + 4 +   

VERSE


Gb|------------------|------------------|------------------|------------------|
Db|------------------|------------------|------------------|------------------|
Ab|------------------|-2-2-2-2-2-2-2-2--|------------------|------------------|
Eb|-4-4-4-4-4-4-4-4--|------------------|-0-0-0-0-0-0-0-0--|-2-2-2-2-2-2-2-2--|
    1 + 2 + 3 + 4 +    1 + 2 + 3 + 4 +    1 + 2 + 3 + 4 +    1 + 2 + 3 + 4 +    

Gb|------------------|------------------|------------------|------------------|
Db|------------------|------------------|------------------|-8-8-----9-9-11-11|
Ab|------------------|-2-2-2-2-2-2-2-2--|-7-7-7-7-7-7-7-7--|-----9-9----------|
Eb|-4-4-4-4-4-4-4-4--|------------------|------------------|------------------|
    1 + 2 + 3 + 4 +    1 + 2 + 3 + 4 +    1 + 2 + 3 + 4 +    1 + 2 + 3 + 4 +    

Gb|------------------|------------------|------------------|------------------|
Db|------------------|------------------|------------------|------------------|
Ab|------------------|-2-2-2-2-2-2-2-2--|------------------|------------------|
Eb|-4-4-4-4-4-4-4-4--|------------------|-0-0-0-0-0-0-0-0--|-2-2-2-2-2-2-2-2--|
    1 + 2 + 3 + 4 +    1 + 2 + 3 + 4 +    1 + 2 + 3 + 4 +    1 + 2 + 3 + 4 +    

Gb|------------------|------------------|------------------|------------------|
Db|------------------|------------------|------------------|------------------|
Ab|------------------|-2-2-2-2-2-2-2-2--|-7-7-7-7-7-7-7-7--|-9-9-9-9-9-9-9----|
Eb|-4-4-4-4-4-4-4-4--|------------------|------------------|---------------0--|
    1 + 2 + 3 + 4 +    1 + 2 + 3 + 4 +    1 + 2 + 3 + 4 +    1 + 2 + 3 + 4 +  

PRE-CHORUS


Gb|------------------|------------------|------------------|------------------|
Db|------------------|------------------|------------------|------------------|
Ab|------------------|---------------4--|---4-4-4-4-4-4-4--|-4-4-4-4-4-4-4----|
Eb|---0-0-0-0-0-0-0--|-0-0-0-0-0-0-0----|------------------|---------------0--|
    1 + 2 + 3 + 4 +    1 + 2 + 3 + 4 +    1 + 2 + 3 + 4 +    1 + 2 + 3 + 4 +   

Gb|------------------|------------------|------------------|------------------|
Db|------------------|------------------|------------------|------------------|
Ab|------------------|---------------4--|---4-4-4-4-4-4-4--|-4----------------|
Eb|---0-0-0-0-0-0-0--|-0-0-0-0-0-0-0----|------------------|---------------4--|
    1 + 2 + 3 + 4 +    1 + 2 + 3 + 4 +    1 + 2 + 3 + 4 +    1 + 2 + 3 + 4 +  

CHORUS


Gb|------------------|------------------|------------------|------------------|
Db|------------------|------------------|------------------|------------------|
Ab|------------------|------------------|------------------|------------------|
Eb|-----4---4---4----|-4---4---4---4-2--|-----2---2---2----|-2---2---2-2-2-0--|
    1 + 2 + 3 + 4 +    1 + 2 + 3 + 4 +    1 + 2 + 3 + 4 +    1 + 2 + 3 + 4 +

Gb|------------------|------------------|------------------|------------------|
Db|------------------|------------------|------------------|------------------|
Ab|------------------|---------------2--|---2-2-2-2-2-2-1--|---1-1-1-1-1-1----|
Eb|---0-0-0-0-0-0-0--|-0-0-0-0-0-0-0----|------------------|---------------4--|
    1 + 2 + 3 + 4 +    1 + 2 + 3 + 4 +    1 + 2 + 3 + 4 +    1 + 2 + 3 + 4 +

Gb|------------------|------------------|------------------|------------------|
Db|------------------|------------------|------------------|------------------|
Ab|------------------|------------------|------------------|-9---9---9-9-11---|
Eb|-----4---4---4----|-4---4---4---4-2--|-----2---2---2-/--|---------------0--|
    1 + 2 + 3 + 4 +    1 + 2 + 3 + 4 +    1 + 2 + 3 + 4 +    1 + 2 + 3 + 4 +

Gb|------------------|------------------|------------------|------------------|
Db|------------------|------------------|------------------|------------------|
Ab|------------------|---------------2--|---2-2-2-2-2-2-4--|---4-4-4-4-4-4----|
Eb|---0-0-0-0-0-0-0--|-0-0-0-0-0-0-0----|------------------|---------------0--|
    1 + 2 + 3 + 4 +    1 + 2 + 3 + 4 +    1 + 2 + 3 + 4 +    1 + 2 + 3 + 4 +

INTERLUDE


Gb|------------------|------------------|------------------|------------------|
Db|------------------|------------------|------------------|------------------|
Ab|------------------|------------------|------------------|------------------|
Eb|(0)---------------|------------------|------------------|------------------|
    1 + 2 + 3 + 4 +    1 + 2 + 3 + 4 +    1 + 2 + 3 + 4 +    1 + 2 + 3 + 4 +   

BRIDGE


Gb|------------------|------------------|------------------|------------------|
Db|------------------|------------------|------------------|------------------|
Ab|------------------|------------------|-7----------------|------------(7)\\\|
Eb|-4----------------|------------------|------------------|------------------|
    1 + 2 + 3 + 4 +    1 + 2 + 3 + 4 +    1 + 2 + 3 + 4 +    1 + 2 + 3 + 4 +   

Gb|------------------|------------------|------------------|------------------|
Db|------------------|------------------|------------------|------------------|
Ab|------------------|------------------|-7----------------|------------------|
Eb|-4----------------|------------------|------------------|------------------|
    1 + 2 + 3 + 4 +    1 + 2 + 3 + 4 +    1 + 2 + 3 + 4 +    1 + 2 + 3 + 4 +   

Gb|------------------|------------------|------------------|------------------|
Db|------------------|------------------|------------------|------------------|
Ab|------------------|------------------|------------------|------------------|
Eb|-2-2-2-2-2-2-2-2--|-2-2-2-2-2-2-2-2--|-0-0-0-0-0-0-0-0--|-0-0-0-0-0-0-0-0--|
    1 + 2 + 3 + 4 +    1 + 2 + 3 + 4 +    1 + 2 + 3 + 4 +    1 + 2 + 3 + 4 +   

Gb|------------------|------------------|------------------|------------------|
Db|------------------|------------------|------------------|------------------|
Ab|------------------|------------------|------------------|---------7\\\\\\\-|
Eb|-2-2-2-2-2-2-2-2--|-2-2-2-2-2-2-2-2--|-0-0-0-0-0-0-0-0--|-0-0-0-2----------|
    1 + 2 + 3 + 4 +    1 + 2 + 3 + 4 +    1 + 2 + 3 + 4 +    1 + 2 + 3 + 4 +  

Gb|------------------|------------------|------------------|------------------|
Db|------------------|------------------|------------------|------------------|
Ab|------------------|-2-2-2-2-2-2-2-2--|------------------|-7-7-7-7-7-7-7-7--|
Eb|-4-4-4-4-4-4-4-4--|------------------|-0-0-0-0-0-0-0-0--|-0-0-0-0-0-0-0-0--|
    1 + 2 + 3 + 4 +    1 + 2 + 3 + 4 +    1 + 2 + 3 + 4 +    1 + 2 + 3 + 4 + 

Gb|------------------|------------------|------------------|------------------|
Db|------------------|------------------|------------------|------------------|
Ab|------------------|-2-2-2-2-2-2-2-2--|-7-7-7-7-7-7-7-7--|-7-7-7-7-7-7-7-7--|
Eb|-4-4-4-4-4-4-4-4--|------------------|------------------|------------------|
    1 + 2 + 3 + 4 +    1 + 2 + 3 + 4 +    1 + 2 + 3 + 4 +    1 + 2 + 3 + 4 +     

Gb|------------------|------------------|------------------|------------------|
Db|------------------|------------------|------------------|-------2---4---4--|
Ab|------------------|-2-2-2-2-2-2-2-2--|------------------|---2--------------|
Eb|-4-4-4-4-4-4-4-4--|------------------|-0-0-0-0-0-0-0-0--|-2----------------|
    1 + 2 + 3 + 4 +    1 + 2 + 3 + 4 +    1 + 2 + 3 + 4 +    1 + 2 + 3 + 4 + 

Gb|------------------|------------------|------------------|------------------|
Db|------------------|------------------|-------------4/6--|------------------|
Ab|------------------|------------------|------------------|------------------|
Eb|-2-----2-----0----|------------------|-2-----2----------|------------------|
    1 + 2 + 3 + 4 +    1 + 2 + 3 + 4 +    1 + 2 + 3 + 4 +    1 + 2 + 3 + 4 +   

Gb|------------------|-------------------------|------------------|------------------|
Db|------------------|-------------------------|------------------|------------------|
Ab|------------------|-------------------------|------------------|------------------|
Eb|-2-----2-----0----|-------------------------|-0----------------|---------------4--|
    1 + 2 + 3 + 4 +    1 + 2 + 3 + 4 + 5 + 6 +   1 + 2 + 3 + 4 +    1 + 2 + 3 + 4 +    

CHORUS


Gb|------------------|------------------|------------------|------------------|
Db|------------------|------------------|------------------|------------------|
Ab|------------------|------------------|------------------|------------------|
Eb|---4-4-4-4-4-4-4--|-4-4-4-4-4-4-4-2--|---2-2-2-2-2-2-2--|-2-2-2-2-2-2-2-0--|
    1 + 2 + 3 + 4 +    1 + 2 + 3 + 4 +    1 + 2 + 3 + 4 +    1 + 2 + 3 + 4 +   

Gb|------------------|------------------|------------------|------------------|
Db|------------------|------------------|------------------|------------------|
Ab|------------------|---------------2--|---2-2-2-2-2-2-1--|---1-1-1-1-1-1----|
Eb|---0-0-0-0-0-0-0--|-0-0-0-0-0-0-0----|------------------|---------------4--|
    1 + 2 + 3 + 4 +    1 + 2 + 3 + 4 +    1 + 2 + 3 + 4 +    1 + 2 + 3 + 4 +  

Gb|------------------|------------------|------------------|------------------|
Db|------------------|------------------|------------------|------------------|
Ab|------------------|------------------|------------------|------------------|
Eb|---4-4-4-4-4-4-4--|-4-4-4-4-4-4-4-2--|---2-2-2-2-2-2-2--|-2-2-2-2-2-2-2-0--|
    1 + 2 + 3 + 4 +    1 + 2 + 3 + 4 +    1 + 2 + 3 + 4 +    1 + 2 + 3 + 4 +   

Gb|------------------|------------------|------------------|------------------|
Db|------------------|------------------|------------------|------------------|
Ab|------------------|---------------2--|---2-2-2-2-2-2-4--|---4-4-4-4-4-4----|
Eb|---0-0-0-0-0-0-0--|-0-0-0-0-0-0-0----|------------------|---------------4--|
    1 + 2 + 3 + 4 +    1 + 2 + 3 + 4 +    1 + 2 + 3 + 4 +    1 + 2 + 3 + 4 +  

OUTRO


Gb|------------------|------------------|------------------|------------------|
Db|------------------|------------------|------------------|------------------|
Ab|------------------|------------------|------------------|------------------|
Eb|---4-4-4-4-4-4-4--|-4-4-4-4-4-4-4-2--|---2-2-2-2-2-2-2--|-2-2-2-2-2-2-2-0--|
    1 + 2 + 3 + 4 +    1 + 2 + 3 + 4 +    1 + 2 + 3 + 4 +    1 + 2 + 3 + 4 +   

Gb|------------------|------------------|------------------|------------------||
Db|------------------|------------------|------------------|------------------||
Ab|------------------|---------------2--|---------------4~~|------------------||
Eb|---0-0-0-0-0-0-0--|-0-0-0-0-0-0-0----|------------------|------------------||
    1 + 2 + 3 + 4 +    1 + 2 + 3 + 4 +    1 + 2 + 3 + 4 +    1 + 2 + 3 + 4 +  

            
            
Suggest correction
Creating personal tab
Creating personal tab
You can edit any tab online and save it as your Personal.

You can edit, replace or remove any tab part or add personal notes – all changes will be seen only by you.

Personal tabs can be accessed anytime from any device, even offline.
Learn more »
Give kudos to tab author, rate the tab!
1 2 3 4 5
comments
print report bad tab
guest
You may want to rate the tab now too:
select rating
Wanna post a correction for this tab? Suggest correction