Oops, an error
Loading. Please wait.

Help Is On The Way bass

version 4
version 4

Whole song

Interactive

2,060 views 3 this week
no commentswrite comment
1 2 3 4 5
x 4
add to favorites
×
Save as Personal and add changes to this tab that will be seen only by you. Learn more ›
×
You can save this tab as Personal to edit and correct it or add notes. All changes will be seen only by you. Learn more »
launch autoscroll
font size
0
reset
guitar tuner
backing track
0:00
0:00
edit
Autoscroll
slow
fast
+/-
esc
set tempo
stop
F#|--------------------------------------------------------------------|
C#|o-------------------------------------------------------------------|
G#|o-------------------------------------------------------------------|
D#|--4---4-4---4---4---2---2---4-6-7---0---0-0---0---0---2---2---4-6-7-|

F#|--------------------------------------------------------------------|
C#|-------------------------------------------------------------------o|
G#|-------------------------------------------------------------------o|
D#|-4---4-4---4---4---7---7---6-7-6---0---0-0---0---0-----2-2-2-2-2-2--|

0:17
F#|------------------------------------------------------------------|
C#|-----------------------------------------------------9---11---9---|
G#|---------------------------------7---------------7----------------|
D#|-4-4-0-0-4-4-0-0-4-4-0-0-4-4-0-0-----7---0---7--------------------|

0:22
F#|-----------------------------------------------------------------|
C#|-----------------------------------------------------------------|
G#|-----------------------------------------------------------------|
D#|-4---4-4-4-4-4-4-4-4-4-4-4-4-4-4-7---7-7-7-7-7-7-7-7-7-7-7-7-7-7-|

F#|-----------------------------------------------------------------|
C#|-----------------------------------------------------------------|
G#|-7---7-7-7-7-7-7-7-7-7-7-7-7-7-7-9---9-9-9-9-9-9-----------------|
D#|-------------------------------------------------7-7-7-7-9-9-9-9-|

F#|-----------------------------------------------------------------|
C#|-----------------------------------------------------------------|
G#|-----------------------------------------------------------------|
D#|-4-4-4-4-4-4-4-4-4-4-4-4-4-4-4-4-7-7-7-7-7-7-7-7-7-7-7-7-7-7-7-7-|

F#|-----------------------------------------------------------------|
C#|-----------------------------------------------------------------|
G#|-7-7-7-7-7-7-7-7-7-7-7-7-7-7-7-7-9-9-9-9-9-9-9-9-----------------|
D#|-------------------------------------------------7-7-7-7-9-9-9-9-|

0:39
F#|-------------------------------------------------------------------|
C#|-------------------------------------------------------------------|
G#|-------------------------------------------------------------------|
D#|-0---0-0---0---0---0---0---0-0-0---2---2-2---2---2---2---2---2-2-2-|

F#|-------------------------------------------------------------------|
C#|-------------------------------------------------------------------|
G#|-------------------------------------------------------------------|
D#|-4---4-4---4---4---4---4---4-4-4---7---7-7---7---7---7---7---7-7-7-|

0:48
F#|---------------------------------------------------------------------------|
C#|---------------------------------------------------------------------------|
G#|-7---7-7---7---7---7---7---------------------------------------------------|
D#|---------------------------7-7-7---2---2-2-2-2-2-2/14-14-14-14-14-14-14-14-|

0:53
F#|-------------------------------------------------------------------|
C#|-------------------------------------------------------------------|
G#|---------------------------------------7-------7---------7-------7-|
D#|-4---4---4-4-4-2---2-2-2---------0---0-----0-0-----0---0-----0-0---|

F#|-------------------------------------------------------------------|
C#|-------------------------------------------------------------------|
G#|---------------------------------------7-------7---2---2-2-4---4-4-|
D#|-4---4---4-4-4-2-2-2-2-2---------0---0-----0-0---------------------|

1:02
F#|-------------------------------------------------------------------|
C#|-------------------------------------------------------------------|
G#|---------------------------------2---2---2-2-2---------------------|
D#|-4---4---4-4-4-2---2-2---2-2-2-------------------0---0-0---0-0-0---|

F#|-------------------------------------------------------------------------------------------|
C#|---------------------------------2---2-2-4---4-4-6---6-6-2---------------------------------|
G#|-----------------------------------------------------------------------------------2-2-2-4-|
D#|-4---4---4-4-4-2---2-2---------------------------------------------------------------------|

1:13
F#|-----------------------------------------------------------------|
C#|-----------------------------------------------------------------|
G#|-----------------------------------------------------------------|
D#|-4---4-4-4-4-4-4-4-4-4-4-4-4-4-4-7---7-7-7-7-7-7-7-7-7-7-7-7-7-7-|

F#|-----------------------------------------------------------------|
C#|-----------------------------------------------------------------|
G#|-7---7-7-7-7-7-7-7-7-7-7-7-7-7-7-9---9-9-9-9-9-9-----------------|
D#|-------------------------------------------------7-7-7-7-9-9-9-9-|

F#|-----------------------------------------------------------------|
C#|-----------------------------------------------------------------|
G#|-----------------------------------------------------------------|
D#|-4-4-4-4-4-4-4-4-4-4-4-4-4-4-4-4-7-7-7-7-7-7-7-7-7-7-7-7-7-7-7-7-|

F#|-----------------------------------------------------------------|
C#|-----------------------------------------------------------------|
G#|-7-7-7-7-7-7-7-7-7-7-7-7-7-7-7-7-9-9-9-9-9-9-9-9-----------------|
D#|-------------------------------------------------7-7-7-7-9-9-9-9-|

1:30
F#|-------------------------------------------------------------------|
C#|-------------------------------------------------------------------|
G#|-------------------------------------------------------------------|
D#|-0---0-0---0---0---0---0---0-0-0---2---2-2---2---2---2---2---2-2-2-|

F#|-------------------------------------------------------------------|
C#|-------------------------------------------------------------------|
G#|-------------------------------------------------------------------|
D#|-4---4-4---4---4---4---4---4-4-4---7---7-7---7---7---7---7---7-7-7-|

1:39
F#|-------------------------------------------------------------------|
C#|---------------------------------------------------9-9-9-9---------|
G#|-7---7-7---7---7---7---7-----------9-9-9-9-9-9-9-9---------9-9-9-9-|
D#|---------------------------7-7-7-----------------------------------|

1:44
F#|-------------------------------------------------------------------|
C#|-------------------------------------------------------------------|
G#|---------------------------------------7-------7---------7-------7-|
D#|-4---4---4-4-4-2---2-2-2---------0---0-----0-0-----0---0-----0-0---|

F#|-------------------------------------------------------------------|
C#|-------------------------------------------------------------------|
G#|---------------------------------------7-------7---2---2-2-4---4-4-|
D#|-4---4---4-4-4-2-2-2-2-2---------0---0-----0-0---------------------|

1:53
F#|-------------------------------------------------------------------|
C#|-------------------------------------------------------------------|
G#|---------------------------------2---1-----------------------------|
D#|-4---4---4-4-4-2---2-2---2-2-2-----------4---2---0---0-0---0-0-0---|

F#|----------------------------------------------------------------------|
C#|----------------------------------------------------------------------|
G#|----------------------------------------------------------------------|
D#|-4---4---4-4-4-2-----------------0---------------2------------------4-|

2:06
F#|-----------------------------------------------------------------|
C#|-----------------------------------------------------------------|
G#|---------------------------------------------------------4-4-6-6-|
D#|-0-0-0-0-0-0-0-0-0-0-0-0-0-0-0-0-4-4-4-4-4-4-4-4-4-4-4-4---------|

F#|-----------------------------------------------------------------|
C#|-----------------------------------------------------------------|
G#|-7-----7-----7---7-----7-7-7-7-7---------------------------------|
D#|---0-0---0-0---0---0-0-----------4-------------------------------|

2:19
F#|-----------------------------------------------------------------|
C#|-----------------------------------------------------------------|
G#|-7-----7-----7---7-----7-7-7-7-7-4-4-4-4-4-4-4-4-4-4-4-4-4-4-6-6-|
D#|---0-0---0-0---0---0-0-------------------------------------------|

F#|-----------------------------------------------------------------|
C#|-----------------------------------------------------------------|
G#|-7-7-7-7-7-7-7-7-7-7-7-7-7-7-7-7-4-4-4-4-4-4-4-4-4-4-4-4-4-4-4-4-|
D#|-----------------------------------------------------------------|

2:32
F#|-----------------------------------------------------------------|
C#|-----------------------------------------------------------------|
G#|-9-9-9-9-9-9-9-9-9-9-9-9-9-9-9-9---------------------------------|
D#|---------------------------------4-4-4-4-4-4-4-4-2-2-2-2-2-2-2-2-|

F#|-----------------------------------------------------------------|
C#|-----------------------------------------------------------------|
G#|-----------------------------------------------------------------|
D#|-0-0-0-0-0-0-0-0-0-0-0-0-0-0-0-0-4-4-4-4-4-4-4-4-2-2-2-2-2-2-2-2-|

2:45
F#|-----------------------------------------------------------------|
C#|-----------------------------------------------------------------|
G#|-----------------2-2-2-4-4-4-4-4---------------------------------|
D#|-0-0-0-0-0-0-0-0-----------------4-4-4-4-4-4-4-4-2-2-2-2-2-2-2-2-|

F#|-----------------------------------------------------------------|
C#|-----------------------------------------------------------------|
G#|-2-2-2-2-2-2-2-2-------------------------------------------------|
D#|-----------------0-0-0-0-0-0-0-0-4-4-4-4-4-4-4-4-2-2-2-2-2-2-2-2-|

2:58
F#|-----------------------------------------------------------------|
C#|-----------------------------------------------------------------|
G#|-----------------7-7-7-7-----7-9---------------------------------|
D#|-0-0-0-0-0-0-0-0---------9-7-----4-4-4-4-4-4-4-4-2-2-2-2-2-2-2-2-|

F#|-----------------------------------------------------------------|
C#|-----------------------------------------------------------------|
G#|-----------------------------------------------------------------|
D#|-0-0-0-0-0-0-0-0-0-0-0-0-0-0-0-0-4-4-4-4-4-4-4-4-2-2-2-2-2-2-2-2-|

3:11
F#|-----------------------------------------------------------------|
C#|-----------------------------------------------------------------|
G#|-----------------7-7-7-6-6-6-4-2---------------------------------|
D#|-0-0-0-0-0-0-0-0-----------------4-4-4-4-4-4-4-4-2-2-2-2-2-2-2-2-|

3:18
F#|-----------------------------------------------------------------|
C#|-----------------------------------------------------------------|
G#|---------------------------------4-4-4-4-4-4-4-4-4-4-4-4-4-4-4-4-|
D#|-0-0-0-0-0-0-0-0-0-0-0-0-0-0-0-0---------------------------------|

3:24
F#|-----------------------------------------------------------------|
C#|-----------------------------------------------------------------|
G#|-----------------------------------------------------------------|
D#|-0-0-0-0-0-0-0-0-2---4---0---2---4---2---4------------------12-\-|

F#|-------------------------------------|
C#|-------------------------------------|
G#|-------7-------7---7---6---4---6-4---|
D#|-0---0-----0-0-----------------------|

3:32
F#|-------------------------------------------------------------------|
C#|-------------------------------------------------------------------|
G#|---------------------------------------7-------7---2---2-2-4---4-4-|
D#|-4---4---4-4-4-2---2-2-2---------0---0-----0-0---------------------|

F#|-------------------------------------------------------------------|
C#|-------------------------------------------------------------------|
G#|---------------------------------2---1---2---4---------------------|
D#|-4---4---4-4-4-2---2-2---2-2-2-------------------0---0-0---0-0-0---|

F#|---------------------------------|
C#|---------------------------------|
G#|---------------------------------|
D#|-4---4---4-4-4-2---2-2---2-2-2---|

F#|-------------------------------------------------------------------|
C#|-------------------------------------------------------------------|
G#|-------------------------------------------------------------------|
D#|-4---4-4---4---4---2---2---4-6-7---0---0-0---0---0---2---2---4-6-7-|

F#|-----------------------------------------------------------------------|
C#|-----------------------------------------------------------------------|
G#|-----------------------------------------------------------------------|
D#|-4---4-4---4---4---2---2---4-6-7---0---0-0---0---0---2---2---7-6-4-4-\-|
Tabbed by Dave Vucko

            
            
Suggest correction
Creating personal tab
Creating personal tab
You can edit any tab online and save it as your Personal.

You can edit, replace or remove any tab part or add personal notes – all changes will be seen only by you.

Personal tabs can be accessed anytime from any device, even offline.
Learn more »
comments
print report bad tab
guest
You may want to rate the tab now too:
select rating
Wanna post a correction for this tab? Suggest correction