Oops, an error
Loading. Please wait.
We have an official Kotov Syndrome tab made by UG professional guitarists. Check out the tab »
×
2,235 views 1 this week
no commentswrite comment
1 2 3 4 5
x 3
add to favorites
×
Save as Personal and add changes to this tab that will be seen only by you. Learn more ›
×
You can save this tab as Personal to edit and correct it or add notes. All changes will be seen only by you. Learn more »
launch autoscroll
font size
0
reset
guitar tuner
edit
Autoscroll
slow
fast
+/-
esc
set tempo
stop
Author
-------------------------------------------------------------------------------
			     Kotov Syndrome - Rise Against
-------------------------------------------------------------------------------

Tabbed By : lars83
Tuning: Eb Ab Db Gb

Drum Intro
Gb||---------|
Db||---------|
Ab||---------|
Eb||---------|
     1 2 3 4

Intro:
Gb|-----------------------------------|----------------------------------|
Db|o----------------------------------|---------------------------------o|
Ab|o-----------------5---5-5---5-5----|---------------------------------o|
Eb|--2---2-2---2-2--------------------|-0---0-0---0-0---0---0-0---0-0----|

Gb|----------------------------------|----------------------------------|
Db|----------------------------------|----------------------------------|
Ab|-----------------5---5-5---5-5----|-----------------2---2-2---2-2----|
Eb|-2---2-2---2-2--------------------|-5---5-5---5-5--------------------|

Gb|----------------------------------|----------------------------------|
Db|----------------------------------|----------------------------------|
Ab|-----------------5---5-5---5-5----|----------------------------------|
Eb|-2---2-2---2-2--------------------|-0---0-0---0-0---0---0-0---0-0----|

Verse 1:
Gb|----------------------------------|----------------------------------|
Db|----------------------------------|----------------------------------|
Ab|----------------------------------|----------------------------------|
Eb|-2---2-2---2-2---2---2-2---2-2----|-0---0-0---0-0---0---0-0---0-0----|
  There, high on the watchtower        keeping the peace

Gb|----------------------------------|----------------------------------|
Db|----------------------------------|----------------------------------|
Ab|----------------------------------|----------------------------------|
Eb|-2---2-2---2-2---2---2-2---2-2----|-0---0-0---0-0---0---0-0---0-0----|
  What - ever               that               means

Gb|----------------------------------|----------------------------------|
Db|----------------------------------|----------------------------------|
Ab|-5---5-5---5-5---5---5-5---5-5----|----------------------------------|
Eb|----------------------------------|-0---0-0---0-0---0---0-0---0-0----|
    You        see          the         world      through

Gb|----------------------------------|----------------------------------|
Db|----------------------------------|----------------------------------|
Ab|-5---5-5---5-5---5---5-5---5-5----|-------------------------2~-------|
Eb|----------------------------------|-0-0-0-0-0-0-0-0-5~---------------|
    crosshairs          and          TV's,         don't       you?

Verse 2:
Gb|----------------------------------|----------------------------------|
Db|----------------------------------|----------------------------------|
Ab|----------------------------------|----------------------------------|
Eb|-2---2-2---2-2---2---2-2---2-2----|-0---0-0---0-0---0---0-0---0-0----|
  Ten     foot      walls     built     around    us

Gb|----------------------------------|----------------------------------|
Db|----------------------------------|----------------------------------|
Ab|----------------------------------|----------------------------------|
Eb|-2---2-2---2-2---2---2-2---2-2----|-0---0-0---0-0---0---0-0---0-0----|
  White      picket     death,   so   quiet,    so     safe

Gb|----------------------------------|----------------------------------|
Db|----------------------------------|----------------------------------|
Ab|-5---5-5---5-5---5---5-5---5-5----|----------------------------------|
Eb|----------------------------------|-0---0-0---0-0---0---0-0---0-0----|
  But   if       we      fall,    there    will   be     nothing

Gb|----------------------------------|----------------------------------|
Db|----------------------------------|----------------------------------|
Ab|-5---5-5---5-5---5---5-5---5-5----|----------------------------------|
Eb|----------------------------------|-0-0-0-0-0-0-0-0-5~------0~-------|
  No    one     to    catch    us     sit   back  and  watch  as we

Chorus:
Gb|----------------------------------|----------------------------------|
Db|----------------------------------|----------------------------------|
Ab|-----------------5---5-5---5-5----|----------------------------------|
Eb|-2---2-2---2-2--------------------|-0---0-0---0-0---0---0-0---0-0----|
    Spin         out          of       control

Gb|----------------------------------|----------------------------------|
Db|----------------------------------|----------------------------------|
Ab|-----------------5---5-5---5-5----|----------------------------------|
Eb|-2---2-2---2-2--------------------|-0---0-0---0-0---0---0-0---0-0----|
    Spin         out          of       control

Gb|----------------------------------|----------------------------------|
Db|----------------------------------|----------------------------------|
Ab|-----------------5---5-5---5-5----|-----------------2---2-2---2-2----|
Eb|-2---2-2---2-2--------------------|-5---5-5---5-5--------------------|
   Try      to   recover    but    collide   with   each  other   we

Gb|----------------------------------|
Db|----------------------------------|
Ab|---------5~-----------------------|
Eb|-2~--------------0~~--------------|
    Spin out of  control

Post Chorus:
Gb|----------------------------------|----------------------------------|
Db|----------------------------------|----------------------------------|
Ab|----------------------------------|----------------------------------|
Eb|-2---2-2---2-2---2---2---4---5----|-2---2-2---2-2---2---2---4---5----|

Gb|----------------------------------|----------------------------------|
Db|----------------------------------|----------------------------------|
Ab|----------------------------------|-------------------------2~-------|
Eb|-2---2-2---2-2---2---2---4---5----|-5~------0~------5~---------------|

Verse 3:
Gb|----------------------------------|----------------------------------|
Db|----------------------------------|----------------------------------|
Ab|----------------------------------|----------------------------------|
Eb|-2---2-2---2-2---2---2-2---2-2----|-0---0-0---0-0---0---0-0---0-0----|
  Something    I    cannot   change   I  was   born    in    a   place

Gb|----------------------------------|----------------------------------|
Db|----------------------------------|----------------------------------|
Ab|----------------------------------|----------------------------------|
Eb|-2---2-2---2-2---2---2-2---2-2----|-0---0-0---0-0---0---0-0---0-0----|
            That      lives    by      the    sword
Gb|----------------------------------|----------------------------------|
Db|----------------------------------|----------------------------------|
Ab|-5---5-5---5-5---5---5-5---5-5----|----------------------------------|
Eb|----------------------------------|-0---0-0---0-0---0---0-0---0-0----|
   And    thus    to     its     blade   we're  condemned

Gb|----------------------------------|----------------------------------|
Db|----------------------------------|----------------------------------|
Ab|-5---5-5---5-5---5---5-5---5-5----|----------------------------------|
Eb|----------------------------------|-0-0-0-0-0-0-0-0-5~------7~-------|
   Don't    you    understand         why    we   scream no more?

Verse 4:
Gb|----------------------------------|----------------------------------|
Db|----------------------------------|----------------------------------|
Ab|----------------------------------|----------------------------------|
Eb|-2---2-2---2-2---2---2-2---2-2----|-0---0-0---0-0---0---0-0---0-0----|
   My    dreams     are     of     children   orphaned   by

Gb|----------------------------------|----------------------------------|
Db|----------------------------------|----------------------------------|
Ab|----------------------------------|----------------------------------|
Eb|-2---2-2---2-2---2---2-2---2-2----|-0---0-0---0-0---0---0-0---0-0----|
    Blood    spilled    at       these      hands

Gb|----------------------------------|----------------------------------|
Db|----------------------------------|----------------------------------|
Ab|-5---5-5---5-5---5---5-5---5-5----|----------------------------------|
Eb|----------------------------------|-0---0-0---0-0---0---0-0---0-0----|
   And     here     on     the    graves                   of the

Gb|----------------------------------|----------------------------------|
Db|----------------------------------|----------------------------------|
Ab|-5---5-5---5-5---5---5-5---5-5----|----------------------------------|
Eb|----------------------------------|-0-0-0-0-0-0-0-0-5~------0~-------|
   Innocent                     We   raise    our   flag

Chorus
Gb|----------------------------------|----------------------------------|
Db|----------------------------------|----------------------------------|
Ab|-----------------5---5-5---5-5----|----------------------------------|
Eb|-2---2-2---2-2--------------------|-0---0-0---0-0---0---0-0---0-0----|
   Spin        out       of       control

Gb|----------------------------------|----------------------------------|
Db|----------------------------------|----------------------------------|
Ab|-----------------5---5-5---5-5----|----------------------------------|
Eb|-2---2-2---2-2--------------------|-0---0-0---0-0---0---0-0---0-0----|
    Spin      out       of        control

Gb|----------------------------------|----------------------------------|
Db|----------------------------------|----------------------------------|
Ab|-----------------5---5-5---5-5----|-----------------2---2-2---2-2----|
Eb|-2---2-2---2-2--------------------|-5---5-5---5-5--------------------|
   Try     to    recover   but   collide   with  each   other   we

Gb|----------------------------------|
Db|----------------------------------|
Ab|----------------------------------|
Eb|-2~------5~------0~~--------------|
   Spin   out    of    control

Post Chorus:
Gb|----------------------------------|----------------------------------|
Db|----------------------------------|----------------------------------|
Ab|----------------------------------|----------------------------------|
Eb|-2---2-2---2-2---2---2---4---5----|-2---2-2---2-2---2---2---4---5----|

Gb|----------------------------------|
Db|----------------------------------|
Ab|----------------------------------|
Eb|-2---2-2---2-2---2---2---4---5----|

Bridge:
Gb|----------------------------------|----------------------------------|
Db|----------------------------------|----------------------------------|
Ab|----------------------------------|----------------------------------|
Eb|-0~~~~----------------------------|----------------------------------|
  Let ring for two bars while drums play

Gb|----------------------------------|----------------------------------|
Db|----------------------------------|----------------------------------|
Ab|----------------------------------|----------------------------------|
Eb|-0---0---0---0---0---0---0---0----|-0---0---0---0---0---0---0---0----|


Gb|----------------------------------|----------------------------------|
Db|----------------------------------|----------------------------------|
Ab|-------------------------2---2----|----------------------------------|
Eb|-5---5----------------------------|-2---2----------------------------|

Gb|----------------------------------|----------------------------------|
Db|----------------------------------|----------------------------------|
Ab|----------------------------------|-5---5----------------------------|
Eb|-0---0-------------------2---2----|----------------------------------|

Gb|----------------------------------|----------------------------------|
Db|----------------------------------|----------------------------------|
Ab|-------------------------2---2----|----------------------------------|
Eb|-5---5----------------------------|-2---2----------------------------|

Gb|----------------------------------|----------------------------------|
Db|----------------------------------|----------------------------------|
Ab|----------------------------------|-5---5----------------------------|
Eb|-0---0-------------------2---2----|----------------------------------|

Repeat this part 3x
Gb|----------------------------------|----------------------------------|
Db|o---------------------------------|----------------------------------|
Ab|o--------------------2---2--------|----------------------------------|
Eb|-5---5---5---5---5-----------2----|-2---2---2---2---2---2---2---2----|

Gb|----------------------------------|----------------------------------|
Db|----------------------------------|---------------------------------o|
Ab|---------------------2---5---5----|-5---5---5---5---5---5---5---5---o|
Eb|-0---0---0---0---0----------------|----------------------------------|

   Some things you don't forgive, some things you don't forget
   Sometimes the fate you suffer is so much worse than death

Then comes:
Gb|----------------------------------|----------------------------------|
Db|----------------------------------|----------------------------------|
Ab|---------------------2---2--------|----------------------------------|
Eb|-5---5---5---5---5-----------2----|-2---2---2---2---2---2---2---2----|
    We're    way    off  course  now  and  we're  drifting out to sea

Gb|----------------------------------|----------------------------------|
Db|----------------------------------|---------------------4------------|
Ab|-----------------------------5----|-----5---5---5---5-----------5----|
Eb|-0---0---0---0---0---2------------|----------------------------------|
   So    cut   the   anchor  on   your    heart  to  be set  free

Gb|----------------------------------|----------------------------------|
Db|---------------------4------------|-----------------------------2----|
Ab|-----5---5---5---5-----------5----|-----5---5---5---5---5---5--------|
Eb|----------------------------------|----------------------------------|
           Set      free                       Set

Gb|----------------------------------|----------------------------------|
Db|-----2---2---2---2---2---2---2----|----------------------------------|
Ab|----------------------------------|----------------------------------|
Eb|----------------------------------|-2~~------------------------------|
        Free       heyyyy      yo      1
Silence for 2 1/2 bars so counting from the last note above, 1 + 2 + 3 + 4 + 1 + 2 + 3 + 
+ 1 + 2 then the rhythm guitar comes in for four bars and this part is sung:

Spin out of control
Spin out of control

Then comes the outro:
Gb|----------------------------------|----------------------------------|
Db|----------------------------------|----------------------------------|
Ab|-----------------5---5-5---5-5----|----------------------------------|
Eb|-2---2-2---2-2--------------------|-0---0-0---0-0---0---0-0---0-0----|
   Spin               out            of                control

Gb|----------------------------------|----------------------------------|
Db|----------------------------------|----------------------------------|
Ab|-----------------5---5-5---5-5----|----------------------------------|
Eb|-2---2-2---2-2--------------------|-0---0-0---0-0---0---x---x---x----|
   Spin               out              of               control

Gb|----------------------------------|----------------------------------|
Db|----------------------------------|----------------------------------|
Ab|-----------------5---5---5---5----|----------------------------------|
Eb|-2---2---2---2--------------------|-0---0---0---0---0---0---0---0----|
   Try    to   recover          we     have     to     recover

Gb|----------------------------------|----------------------------------|
Db|----------------------------------|----------------------------------|
Ab|-----------------5---5---5---5----|----------------------------------|
Eb|-2---2---2---2--------------------|-0---0---0---0---0---0---0---0----|
   We     fight    or     crash     one   after    the    other

Gb|----------------------------------|----------------------------------|
Db|----------------------------------|----------------------------------|
Ab|---------5------------------------|----------------------------------|
Eb|-2---------------0~~~-------------|----------------------------------|
   Spin out of control

| /  slide up
| \  slide down
| h  hammer-on
| p  pull-off
| ~  vibrato
| +  harmonic
| x  Mute note
===============================================================================

            
            
Suggest correction
Creating personal tab
Creating personal tab
You can edit any tab online and save it as your Personal.

You can edit, replace or remove any tab part or add personal notes – all changes will be seen only by you.

Personal tabs can be accessed anytime from any device, even offline.
Learn more »
Give kudos to tab author, rate the tab!
1 2 3 4 5
comments
print report bad tab
guest
You may want to rate the tab now too:
select rating
Wanna post a correction for this tab? Suggest correction