Oops, an error
Loading. Please wait.

Making Christmas tab

version 2
version 2

Whole song

305 views 12 this week
no commentswrite comment
1 2 3 4 5
2 more votes to show rating
add to favorites
×
Save as Personal and add changes to this tab that will be seen only by you. Learn more ›
×
You can save this tab as Personal to edit and correct it or add notes. All changes will be seen only by you. Learn more »
launch autoscroll
font size
0
reset
how to read this tab
guitar tuner
edit
Autoscroll
slow
fast
+/-
esc
set tempo
stop
----------------------------------------------------------------------------
                      MAKING CHRISTMAS - Rise Against
----------------------------------------------------------------------------
Tabbed By: MrPurple5106
Email: mrpurple5106@gmail.com
Tuning: Eb Standard [ Eb, Ab, Db, Gb,Bb, eb ]
Note: This song is as difficult to learn as it was to tab, because there’s so much going on. 
I wish you the best of luck. It’s a fun song. 
I didn’t label what part of the song it is like I do my other tabs. Instead, I put time signatures.
The reason it's set to advanced is because, while it is fairly easy to play, learning and memorizing it is
tricky

0:00
 |Guitar 1 (Right)
e|-------------------------|     -------------------------------------------------|
B|----16----15----16----13-|     -------------------------------------------------|
G|-------------------------|     ----8-----8-----8--------------------------------|
D|-13----13----13----13----| X2  -------------------------------------------------|
A|-------------------------|     -6-----5-----6-----------------------------------|
E|-------------------------|     -------------------8-----------------------------|
 | .     .     .     .
 |Guitar 2 (Left)
e|--------------------------------------------------------------------------------|
B|--------------------------------------------------------------------------------|
G|----8-----8-----8-----8---------------------------------------------------------|
D|--------------------------------------------------------------------------------| x4
A|-6-----5-----6------------------------------------------------------------------|
E|-------------------8------------------------------------------------------------|
   .     .     .     .
 
0:06
 |Guitar 1
e|--------------------------------------------------------------------------------|
B|--------------------------------------------------------------------------------|
G|--------------------------------------------------------------------------------|
D|--5+----7+----------------------------------------------------------------------|
A|--5+----7+----------------------------------------------------------------------|
E|--3+----5+----------------------------------------------------------------------|
 |
 |Guitar 2
e|------------///-----------------------------------------------------------------|
B|------------///-----------------------------------------------------------------|
G|------------///-----------------------------------------------------------------|
D|--5+----7+--///-----------------------------------------------------------------|
A|--5+----7+--///-----------------------------------------------------------------|
E|--3+----5+--///-----------------------------------------------------------------|


0:09
 |Guitar 1
e|--------------------------------------------------------------------------------|
B|--------------------------------------------------------------------------------|
G|-5--5---------------------------------------------------------------------------|
D|-5--5--5-5-5-5-5-5-5-5-5-5-5-5-5-5----------------------------------------------| x2
A|-3--3--3-3-3-3-3-3-3-3-3-3-3-3-3-3----------------------------------------------|
E|--------------------------------------------------------------------------------|
 |                                                                                 
 |Guitar 2                                                                         
e|--------------------------------------------------------------------------------| 
B|--------------------------------------------------------------------------------|
G|-5--5---------------------------------------------------------------------------|
D|-5--5--5-5-5-5-5-5-5-5-5-5-5-5-5-5----------------------------------------------| x2
A|-3--3--3-3-3-3-3-3-3-3-3-3-3-3-3-3----------------------------------------------|
E|--------------------------------------------------------------------------------|  
  
0:15
 |Guitar 1
e|--------------------------------------------------------------------------------|
B|-5-5-----5-5--------------------------------------------------------------------|
G|-6-6-----6-6--------------------------------------------------------------------|
D|-x-x-5-5-x-x-5-5-5-5-5-5-5-5-5-5------------------------------------------------| x2
A|-3-3-3-3-3-3-3-3-3-3-3-3-3-3-3-3------------------------------------------------|
E|--------------------------------------------------------------------------------|
 |Guitar 2
 |
e|--------------------------------------------------------------------------------|
B|--------------------------------------------------------------------------------|
G|--------------------------------------------------------------------------------|
D|--------------------------------------------------------------------------------| x2
A|-6-6-5-5-6-6-3-3-6-6-5-5-6-6-3-3------------------------------------------------|
E|--------------------------------------------------------------------------------|  
   . . . . . . . . . . . . . . . . 
 
0:24
 |Guitar 1
e|--------------------------------------------------------------------------------|
B|--------------------------------------------------------------------------------|
G|---------------------------------8-7-5-8-7--------------------------------------|
D|-5-5-4-4-5-5-2-2-5-5-4-4-5-5-2-2-x-x-x-x-x--------------------------------------| 
A|-3-3-2-2-3-3-0-0-3-3-2-2-3-3-0-0-6-5-3-6-5--------------------------------------|
E|--------------------------------------------------------------------------------|
 | . . . . . . . . . . . . . . . .                                                 
 |Guitar 2                                                                         
e|--------------------------------------------------------------------------------|
B|--------------------------------------------------------------------------------|
G|---------------------------------8-7-5-8-7--------------------------------------|
D|-5-5-4-4-5-5-2-2-5-5-4-4-5-5-2-2-8-7-5-8-7--------------------------------------| 
A|-3-3-2-2-3-3-0-0-3-3-2-2-3-3-0-0-6-5-3-6-5--------------------------------------|
E|--------------------------------------------------------------------------------|   
   . . . . . . . . . . . . . . . .   

0:30
 |Guitar 1
e|--------------------------------------------------------------------------------|
B|--------------------------------------------------------------------------------|
G|--------------------------------------------------------------------------------|
D|-5~-----------------------------------------------------------------------------|
A|--------------------------------------------------------------------------------|
E|--------------------------------------------------------------------------------|
 |
 |Guitar 2
e|--------------------------------------------------------------------------------|
B|--------------------------------------------------------------------------------|
G|--------------------------------------------------------------------------------|
D|-----------------------------------------5-5------------------------------------|
A|-5-5-5-5-5-5-5-5-5-5-5-5-5-5-5-5-5-5-5-5-5-5------------------------------------|
E|-3-3-3-3-3-3-3-3-3-3-3-3-3-3-3-3-3-3-3-3-3-3------------------------------------|
   . . . . . . . . . . . . . . . . . . . .

0:35
 |Guitar 1 
e|-6-6-7-7-4-4-7-7-6-6-7-7-4-4-7-7-6-6-7-7-4-4-7-7-6-6-7-7-4-4-7-7----------------|
B|--------------------------------------------------------------------------------|
G|--------------------------------------------------------------------------------|
D|--------------------------------------------------------------------------------|
A|--------------------------------------------------------------------------------|
E|--------------------------------------------------------------------------------|
 |
 |Guitar 2
e|--------------------------------------------------------------------------------|
B|--------------------------------------------------------------------------------|
G|--------------------------------------------------------------------------------|
D|--------------------------------------------------------------------------------|
A|-4-4-5-5-2-2-5-5-4-4-5-5-2-2-5-5-4-4-5-5-2-2-5-5-4-4-5-5-2-2-5-5----------------|
E|-2-2-3-3-0-0-3-3-2-2-3-3-0-0-3-3-2-2-3-3-0-0-3-3-2-2-3-3-0-0-3-3----------------|
   . . . . . . . . . . . . . . . . . . . . . . . . . . . . . . . . 

0:41
 |Guitar 1
e|--------------------------------------------------------------------------------|
B|--------------------------------------------------------------------------------|
G|--------------------------------------------------------------------------------|
D|-----------------------4-7-6-3--------------------------------------------------|
A|-------------2~-3~-4~--4-7-6-3--------------------------------------------------|
E|-2~-3~-5~-6~-----------2-5-4-1--------------------------------------------------|
 |Guitar 2
e|--------------------------------------------------------------------------------|
B|--------------------------------------------------------------------------------|
G|--------------------------------------------------------------------------------|
D|-----------------------4-7-6-3--------------------------------------------------|
A|-------------2~-3~-4~--4-7-6-3--------------------------------------------------|
E|-2~-3~-5~-6~-----------2-5-4-1--------------------------------------------------|


0:46
 |Guitar 1
e|--------------------------------------------------------------------------------|
B|--------------------------------------------------------------------------------|
G|--------------------------------------------------------------------------------|
D|-5+-----------------------------------------------------------------------------|
A|--------------------------------------------------------------------------------|
E|--------------------------------------------------------------------------------|
 |
 |Guitar 2
e|--------------------------------------------------------------------------------|
B|--------------------------------------------------------------------------------|
G|--------------------------------------------------------------------------------|
D|--------------------------------------------------------------------------------|
A|-5-5-5-5-5-5-5-5-5-5-5-5-5-5-5-5-6h7h9------------------------------------------|
E|-3-3-3-3-3-3-3-3-3-3-3-3-3-3-3-3-------7p5--------------------------------------|
   . . . . . . . . . . . . . . . .
 
0:48
 |Guitar 1
e|--------------------------------------------------------------------------------|
B|--------------------------------------------------------------------------------|
G|--------------------------------------------------------------------------------|
D|---------------------------------7-7--------------------------------------------|
A|-7-7-7-7-7-7-7-7-7-7-7-7-7-7-7-7-7-7--------------------------------------------|
E|-5-5-5-5-5-5-5-5-5-5-5-5-5-5-5-5-5-5--------------------------------------------|
 | . . . . . . . . . . . . . . . .
 |Guitar 2
e|--------------------------------------------------------------------------------|
B|--------------------------------------------------------------------------------|
G|--------------------------------------------------------------------------------|
D|---------------------------------7-7--------------------------------------------|
A|-7-7-7-7-7-7-7-7-7-7-7-7-7-7-7-7-7-7--------------------------------------------|
E|-5-5-5-5-5-5-5-5-5-5-5-5-5-5-5-5-5-5--------------------------------------------|
   . . . . . . . . . . . . . . . .

0:52
 |Guitar 1
e|--------------------------------------------------------------------------------|
B|--------------------------------------------------------------------------------|
G|-------------------------------------9\8-9\6-9\8-9\8-9\8-9\8-9\8-9\8/6----------|
D|-------107--6/7/10--------------5/6--x\x-x\x-x\x-x\x-x\x-x\x-x\x-x\x/x----------|
A|-------x\x--x/x/x---------------5/6--7\6-7\4-7\6-7\4-7\6-7\4-7\6-7\3/4----------|
E|-------8\5--4/5/8---------------3/4---------------------------------------------|
 |Guitar 2
e|--------------------------------------------------------------------------------|
B|--------------------------------------------------------------------------------|
G|-------------------------12\8-8------9\8-9\6-9\8-9\6-9\8-9\6-9\8-9\5/6----------|
D|-7/6\7--107--6/7/10------x-\x-x-5/6--x\x-x\x-x\x-x\x-x\x-x\x-x\x-x\x/x----------|
A|-x/x\x--x\x--x/x/x--7-7--10\6-6-5/6--7\6-7\4-7\6-7\4-7\6-7\4-7\6-7\3/4----------|
E|-5/4\5--8\5--4/5/8--5-5---------3/4---------------------------------------------|
                      . .
1:03
|Guitar 1
e|--------------------------------------------------------------------------------|
B|--------------------------------------------------------------------------------|
G|--------------------------------------------------------------------------------|
D|--------------------------------------------------------------------------------|
A|-4+-4+-4+-4+-4+-4+-4+-4+-4+-4+-4+-4+-4+-4+-4+-4+--------------------------------|
E|--------------------------------------------------------------------------------|
 |Guitar 2
e|--------------------------------------------------------------------------------|
B|--------------------------------------------------------------------------------|
G|--------------------------------------------------------------------------------|
D|-6-6-6-6-6-6-6-6-6-6-6-6-6-6-6-6------------------------------------------------|
A|-4-4-4-4-4-4-4-4-4-4-4-4-4-4-4-4------------------------------------------------|
E|--------------------------------------------------------------------------------|
   . . . . . . . . . . . . . . . . 

1:07
 |Guitar 1
e|--------------------------------------------------------------------------------|
B|-----5-5-5-5-----5-5-5-5-----5-5-5-5-----2-2-2-2-2-2-2-2------------------------|
G|-----6-6-6-6-----6-6-6-6-----5-5-5-5-----3-3-3-3-3-3-3-3------------------------|
D|-6-6-6-6-6-6-6-6-6-6-6-6-5-5-5-5-5-5-3-3-3-3-3-3-3-3-3-3------------------------|
A|-4-4---------4-4---------3-3---------1-1----------------------------------------|
E|--------------------------------------------------------------------------------|
 | . .         . .         . .         . .
 |Guitar 2
e|--------------------------------------------------------------------------------|
B|-----5-5-5-5-----5-5-5-5-----5-5-5-5-----2-2-2-2-2-2-2-2------------------------|
G|-----6-6-6-6-----6-6-6-6-----5-5-5-5-----3-3-3-3-3-3-3-3------------------------|
D|-6-6-6-6-6-6-6-6-6-6-6-6-5-5-5-5-5-5-3-3-3-3-3-3-3-3-3-3------------------------|
A|-4-4---------4-4---------3-3---------1-1----------------------------------------|
E|--------------------------------------------------------------------------------|
   . .         . .         . .         . . 
1:12
 |Guitar 1
e|--------------------------------------------------------------------------------|
B|-----5-5-5-5-----2-2-2-2-2-2-2-2-----5-5-5-5-----2-2-2-2-2-2-2-2----------------|
G|-----5-5-5-5-----3-3-3-3-3-3-3-3-5-5-5-5-5-5-----3-3-3-3-3-3-3-3----------------|
D|-5-5-5-5-5-5-3-3-3-3-3-3-3-3-3-3-5-5-5-5-5-5-3-3-3-3-3-3-3-3-3-3----------------|
A|-3-3---------1-1-----------------3-3---------1-1--------------------------------|
E|--------------------------------------------------------------------------------|
 | . .         . .                 . .         . .
 |Guitar 2
e|-------------------------------------------------------///----------------------|
B|-----5-5-5-5-----2-2-2-2-2-2-2-2-----5-5-5-5-----------///----------------------|
G|-----5-5-5-5-----3-3-3-3-3-3-3-3-5-5-5-5-5-5-----3+----///----------------------|
D|-5-5-5-5-5-5-3-3-3-3-3-3-3-3-3-3-5-5-5-5-5-5-3-3-3+----///----------------------|
A|-3-3---------1-1-----------------3-3---------1-1-1+----///----------------------|
E|-------------------------------------------------------///----------------------|
   . .         . .                 . .         . .

1:19 (Guitar 2 continues the pick scrape)
 |Guitar 1
e|--------------------------------------------------------------------------------|
B|-----6666-----6666-----6666-----6666--------------------------------------------|
G|-----7777-----7777-----7777-----7777--------------------------------------------|
D|-7-7-7777-7-7-7777-7-7-7777-7-7-7777--------------------------------------------|
A|-5-5------5-5------5-5------5-5-------------------------------------------------|
E|--------------------------------------------------------------------------------|
   . .      . .      . .      . .   

1:22
 |Guitar 1
e|--------------------------------------------------------------------------------|
B|-----6666-----6666-----6666-----6666--------------------------------------------|
G|-----7777-----7777-----7777-----7777--------------------------------------------|
D|-7-7-7777-7-7-7777-7-7-7777-7-7-7777--------------------------------------------|
A|-5-5------5-5------5-5------5-5-------------------------------------------------|
E|--------------------------------------------------------------------------------|
   . .      . .      . .      . .   

 |Guitar 2
e|--------------------------------------------------------------------------------|
B|-----6666-----6666-----6666-----6666--------------------------------------------|
G|-----7777-----7777-----7777-----7777--------------------------------------------|
D|-7-7-7777-7-7-7777-7-7-7777-7-7-7777--------------------------------------------|
A|-5-5------5-5------5-5------5-5-------------------------------------------------|
E|--------------------------------------------------------------------------------|
   . .      . .      . .      . .   

1:26
 |Guitar 1
e|--------------------------------------------------------------------------------|
B|--------------------------------------------------------------------------------|
G|-8-88888-7-77777-8-88888-7-77777-8-88888-7-77777-8-88888-7-77777----------------|
D|-9-99999-8-88888-9-99999-8-88888-9-99999-8-88888-9-99999-8-88888----------------|
A|-9-99999-8-88888-9-99999-8-88888-9-99999-8-88888-9-99999-8-88888----------------|
E|-7-77777-6-66666-7-77777-6-66666-7-77777-6-66666-7-77777-6-66666----------------|
 |
 |Guitar 2
e|--------------------------------------------------------------------------------|
B|--------------------------------------------------------------------------------|
G|-5/6\3/6----4/6\3/6----5/6\3/6----4/6\3~----------------------------------------|
D|--------------------------------------------------------------------------------|
A|--------------------------------------------------------------------------------|
E|--------------------------------------------------------------------------------|

1:32 (Both guitars pick scrape)

1:33
 |Guitar 1
e|--------------------------------------------------------------------------------|
B|--------------------------------------------------------------------------------|
G|-8-88888-7-77777-8-88888-7-77777-8-88888-7-77777-8-88888-7-77777----------------|
D|-9-99999-8-88888-9-99999-8-88888-9-99999-8-88888-9-99999-8-88888----------------|
A|-9-99999-8-88888-9-99999-8-88888-9-99999-8-88888-9-99999-8-88888----------------|
E|-7-77777-6-66666-7-77777-6-66666-7-77777-6-66666-7-77777-6-66666----------------|
 |
 |Guitar 2
e|--------------------------------------------------------------------------------|
B|--------------------------------------------------------------------------------|
G|-8-8-8888-7-7-7777-8-8-8888-7-7-7777-8-8-8888-----------------------------------|
D|----------------------------------------------11-11-11111111-8-8----------------|
A|-----------------------------------------------------------------11-9-8b9r8-----|
E|--------------------------------------------------------------------------------|

1:39
 |Guitar 1
e|-----------------|   -----------------------------------------------------------|
B|-5-55555-4-44444-|   -5+--------------------------------------------------------|
G|-6-66666-5-55555-|   -6+--------------------------------------------------------|
D|-6-66666-5-55555-|x4 -6+--------------------------------------------------------|
A|-4-44444-3-33333-|   -4+--------------------------------------------------------|
E|-----------------|   -----------------------------------------------------------|
 |
 |Guitar 2
e|-----------------|   -------///-------------------------------------------------|
B|-5-55555-4-44444-|   -5+----///-------------------------------------------------|
G|-6-66666-5-55555-|   -6+----///-------------------------------------------------|
D|-6-66666-5-55555-|x4 -6+----///-------------------------------------------------|
A|-4-44444-3-33333-|   -4+----///-------------------------------------------------|
E|-----------------|   -------///-------------------------------------------------|
1:47
 |Guitar 1
e|--------------------------------------------------------------------------------|
B|--------------------------------------------------------------------------------|
G|-6-6-6666-6-6-6666----------------------------9\8-9\5/6-------------------------|
D|-6-6-6666-6-6-6666-7-7-7777-7-7-7777-4-4-4444-x\x-x\x/x-------------------------|
A|-4-4-4444-4-4-4444-7-7-7777-7-7-7777-4-4-4444-7\6-7\3/4-------------------------|
E|-------------------5-5-5555-5-5-5555-2-2-2222-----------------------------------|
 |
 |Guitar 2
e|--------------------------------------------------------------------------------|
B|--------------------------------------------------------------------------------|
G|-9\8-9\6-9\8-9\6-9\8-9\6-9\8-9\5/6----------------------------------------------|
D|-x\x-x\x-x\x-x\x-x\x-x\x-x\x-x\x/x----------------------------------------------|
A|-7\6-7\4-7\6-7\4-7\6-7\4-7\6-7\3/4----------------------------------------------|
E|--------------------------------------------------------------------------------|

1:54
 |Guitar 1
e|--------------------------------------------------------------------------------|
B|--------------------------------------------------------------------------------|
G|--------------------------------------------------------------------------------|
D|-6-6-6-6-6-6-6-6-6-6-6-6-6-6-6-6-6-6-6-6-6-6-6-6-6-6-6-6-6-6-6-6----------------|
A|-4-4-4-4-4-4-4-4-4-4-4-4-4-4-4-4-4-4-4-4-4-4-4-4-4-4-4-4-4-4-4-4----------------|
E|--------------------------------------------------------------------------------|
 | . . . . . . . . . . . . . . . . . . . . . . . . . . . . . . . . 
 |Guitar 2
e|--------------------------------------------------------------------------------|
B|-------------------------------------------------9-9-11-11-9-9-11-11------------|
G|---------------------------------6-6-9-9-6-6-9-9--------------------------------|
D|-----------------6-6-8-8-6-6-8-8------------------------------------------------|
A|-4-4-7-7-4-4-7-7----------------------------------------------------------------|
E|--------------------------------------------------------------------------------|
   . . . . . . . . . . . . . . . . . . . . . . . . . . .  .  . . .  . 

2:00
 |Guitar 1
e|--------------------------------------------------------------------------------|
B|--------------------------------------------------------------------------------|
G|--------------------------------------------------------------------------------|
D|-4-4-4-4-4-4-4-4-4-4-4-4-4-4-4-4------------------------------------------------|
A|-2-2-2-2-2-2-2-2-2-2-2-2-2-2-2-2------------------------------------------------|
E|--------------------------------------------------------------------------------|
 | . . . . . . . . . . . . . . . .
 |Guitar 2
e|--------------------------------------------------------------------------------|
B|--------------------------------------------------------------------------------|
G|--------------------------------------------------------------------------------|
D|-4-4-4-4-4-4-4-4-4-4-4-4-4-4-4-4------------------------------------------------|
A|-2-2-2-2-2-2-2-2-2-2-2-2-2-2-2-2------------------------------------------------|
E|--------------------------------------------------------------------------------|
   . . . . . . . . . . . . . . . .

2:03 
 |Guitar 1
e|--------------------------------------------------------------------------------|
B|--------------------------------------------------------------------------------|
G|-----------------6-6-6-6--------------------------------------------------------|
D|-6-6-5-5-----6-6-6-6-6-6-2-2-2-2------------------------------------------------|
A|---------7-7-----4-4-4-4-2-2-2-2------------------------------------------------|
E|-------------------------0-0-0-0------------------------------------------------|
 | . . . . . . . .
 |Guitar 2
e|--------------------------------------------------------------------------------|
B|--------------------------------------------------------------------------------|
G|-----------------6-6-6-6--------------------------------------------------------|
D|-4-4-4-4-4-4-4-4-6-6-6-6-2-2-2-2------------------------------------------------|
A|-2-2-2-2-2-2-2-2-4-4-4-4-2-2-2-2------------------------------------------------|
E|-------------------------0-0-0-0------------------------------------------------|
   . . . . . . . . 

2:06
 |Guitar 1
e|--------------------------------------------------------------------------------|
B|--------------------------------------------------------------------------------|
G|-------------------------------------------------8-7----------------------------|
D|-------------------------------------------------8-7-3-3------------------------|
A|-2-2-2-2-2-2-2-2-4-4-4-4-4-4-4-4-5-5-5-5-5-5-5-5-6-5-3-3------------------------|
E|-0-0-0-0-0-0-0-0-2-2-2-2-2-2-2-2-3-3-3-3-3-3-3-3-----1-1------------------------|   
 | . . . . . . . . . . . . . . . . . . . . . . . .
 |Guitar 2
e|--------------------------------------------------------------------------------|
B|--------------------------------------------------------------------------------|
G|-2/5\4h5h6-7-6-7---------0-----8-7----------------------------------------------|
D|-----------x-x-x-0h3h7-3---2-3-8-7-3-3------------------------------------------|
A|-----------5-4-5---------------6-5-3-3------------------------------------------|
E|-----------------------------------1-1------------------------------------------|
  
2:12
 |Guitar 1                  
e|--------------------------------------------------------------------------------|
B|--------------------------------------------------------------------------------|
G|--------------------------------------------------------------------------------|
D|--------------------------------------------------------------------------------|
A|-2-2-2222-2-2-2222-2-2-2222-2-2-2222--------------------------------------------|
E|-0-0-0000-0-0-0000-0-0-0000-0-0-0000--------------------------------------------|
 |
 |Guitar 2                
e|--------------------------------------------------------------------------------|
B|--------------------------------------------------------------------------------|
G|--------------------------------------------------------------------------------|
D|--------------------------------------------------------------------------------|
A|-2-2-2222-2-2-2222-2-2-2222-2-2-2222--------------------------------------------|
E|-0-0-0000-0-0-0000-0-0-0000-0-0-0000--------------------------------------------|


2:14
 |Guitar 1
e|--------------------------------------------------------------------------------|
B|--------------------------------------------------------------------------------|
G|--------------------------------------------------------------------------------|
D|-5--4--5--2----5---5---5---5--5\4/5----2----------------------------------------|
A|-5--4--5--2-------------------5\4/5----2----------------------------------------|
E|-3--2--3--0--3---2---3---0----3\2/3----0----------------------------------------|
 |             .   .   .   .
 |Guitar 2
e|--------------------------------------------------------------------------------|
B|--------------------------------------------------------------------------------|
G|--------------------------------------------------------------------------------|
D|-5--4--5--2----5---5---5---5--5\4/5----2----------------------------------------|
A|-5--4--5--2-------------------5\4/5----2----------------------------------------|
E|-3--2--3--0--3---2---3---0----3\2/3----0----------------------------------------|


2:19
 |Guitar 1
e|--------------------------------------------------------------------------------|
B|--------------------------------------------------------------------------------|
G|--------------------------------------------------------------------------------|
D|---------------------------------5\4/5--5--4--2--5--4---------------------------|
A|-5-5-4-4-5-5-2-2-5-5-4-4-5-5-2-2-x\x/x--5--4--2--5--4---------------------------|
E|-3-3-2-2-3-3-0-0-3-3-2-2-3-3-0-0-3\2/3--3--2--0--3--2---------------------------|
 | . . . . . . . . . . . . . . . .
 |Guitar 2                                    
e|--------------------------------------------------------------------------------|
B|--------------------------------------------------------------------------------|
G|-4-4-4-4-4-4-4-4-4-4-4-4-4-4-4-4------------------------------------------------|
D|-5-5-5-5-5-5-5-5-5-5-5-5-5-5-5-5-5\4/5--5--4--2--5--4---------------------------|
A|-5-5-5-5-5-5-5-5-5-5-5-5-5-5-5-5-5\4/5--5--4--2--5--4---------------------------|
E|---------------------------------3\2/5--3--2--0--3--2---------------------------|
   . . . . . . . . . . . . . . . .

2:26
 |Guitar 1
e|--------------------------------------------------------------------------------|
B|--------------------------------------------------------------------------------|
G|---------------------------------4---4-------------3---3------------------------|
D|-7-7-7-7-7-7-7-7-7-7-7-7-7-7-7-7---6---6-7-6-4-6-7---5---5-2h3h5-2h3h5----------|
A|-5-5-5-5-5-5-5-5-5-5-5-5-5-5-5-5------------------------------------------------|
E|--------------------------------------------------------------------------------|
 | . . . . . . . . . . . . . . . . . . . . . . . . . . . . . .     .
e|--------------------------------------------------------------------------------|
B|-10-109-1011---10-109-1011------------------------------------------------------|
G|-x--x\x/x/x----x--x\x/x/x-------------------------------------------------------|
D|-7--7\6/7/8----7--7\6/7/8--5---5-------------2---2------------------------------|
A|-----------------------------7---7-8-7-5-7-8---4---4-2h3h5-2h3h5----------------|
E|--------------------------------------------------------------------------------|
                             . . . . . . . . . . . . .

2:32
 |Guitar 1
e|-----------------7---10---------------------------------------------------------|
B|-------------------9----12-13-12-10-12-13---------------------------------------|
G|-4-4-4-4----------------------------------1111111199991111111112----------------|
D|-4-4-4-4-2-2-2-2--------------------------x-x-x-x-xxxxx-x-x-x-x-----------------|
A|-2-2-2-2-2-2-2-2--------------------------9-9-9-9-77779-9-9-9-10----------------|
E|---------0-0-0-0----------------------------------------------------------------|
 |                                                                 
 |Guitar 2
e|--------------------------------------------------------------------------------|
B|-----------------------7---10------------------11p9p8-9p8p6-8p6p5-6-------------|
G|-------------------------9----11-12-11-9-11-12----------------------------------|
D|--------------------------------------------------------------------------------|
A|-7---7---7h8h10-7h8h10----------------------------------------------------------|
E|---0---0------------------------------------------------------------------------|

2:36
 |Guitar 1
e|--------------------------------------------------------------------------------|
B|--------------------------------------------------------------------------------|
G|--------------------------------------------------------------------------------|
D|-------------------6--3---------------------------------------------------------|
A|-5--4--5--2--6--5--6--3---------------------------------------------------------|
E|-3--2--3--0--4--3--4--1---------------------------------------------------------|
 | .  .  .  .  .  .
 |Guitar 2
e|--------------------------------------------------------------------------------|
B|--------------------------------------------------------------------------------|
G|--------------------------------------------------------------------------------|
D|-------------------6--6---------------------------------------------------------|
A|-5--4--5--2--6--6--6--6---------------------------------------------------------|
E|-3--2--3--0--4--4--4--4---------------------------------------------------------|
   .  .  .  .  .  .

2:39
 |Guitar 1
e|--------------------------------------------------------------------------------|
B|--------------------------------------------------------------------------------|
G|-109/10--------5--5--4--4--2--2-------------------------------------------------|
D|-x\x/x--777-7--5--5--4--4--2--2--5--5--3--3--3--3--5--5--5--5-------------------|
A|-8\7/8--555-5--3--3--2--2--0--0--5--5--3--3--3--3--5--5--5--5-------------------|
E|---------------------------------3--3--1--1--1--1--3--3--3--3-------------------|
 |        ... .                       (I do a little
 |Guitar 2                              sweep here)
e|---------------12--12--11-11-----------------12---------------------------------|
B|---------------x---x---x--x------10p8---6-10----13p12h13p12h13p12h13p12---------|
G|-109/10--------10--10--9--9--6h7------7-----------------------------------------|
D|-x\x/x--777-7-------------------------------------------------------------------|
A|-8\7/8--555-5-------------------------------------------------------------------|
E|--------------------------------------------------------------------------------|

2:43
 |Guitar 1
e|--------------------------------------------------------------------------------|
B|--------------------------------------------------------------------------------|
G|--------------------------------------------------------------7*----------------|
D|---6---6---6---6---6---6---6---6--7-6-7-4-5-4-5\4p0-3-3-3-3p2-------------------|
A|----------------------------------7-6-7-4-5-4-5\4p0-3-3-3-3p2-------------------|
E|-4---4---4---4---4---4---4---4----5-4-5-2-3-2-3\2---1-1-1-1p0-------------------|
 | .   .   .   .   .   .   .   .
 |Guitar 2
e|--------------------------------------------------------------------------------|
B|---9---9---9---9---9---9---9---9------------------------------------------------|
G|----------------------------------7-6-14-1112-4-5/9\7-109-105-5/14-14-14-14-----|
D|-6---6---6---6---6---6---6---6----x-x-x--x-x--x-x/x\x-x-x-x-x-x/x--x--x--x------|
A|----------------------------------5-4-12-9-10-2-3/7\5-8-7-8-3-3/12-12-12-12-----|
E|--------------------------------------------------------------------------------|


2:51
 |Guitar 1
e|--------------------------------------------------------------------------------|
B|--------------------------------------------------------------------------------|
G|-8--7-------8--7---------8------------------------------------------------------|
D|-8--7--7-7--8--7----7-7--8------------------------------------------------------|
A|-6--5--5-5--6--5----5-5--6------------------------------------------------------|
E|--------------------------------------------------------------------------------|
 |       . .          . .
 |Guitar 2
e|---------------------------///--------------------------------------------------|
B|---------------------------///--------------------------------------------------|
G|-8--7-------8--7----14-14--///--------------------------------------------------|
D|-8--7--7-7--8--7----x--x---///--------------------------------------------------|
A|-6--5--5-5--6--5----12-12--///--------------------------------------------------|
E|---------------------------///--------------------------------------------------|
         . .          

2:55
 |Guitar 1 
e|--------------------------------------------------------------------------------|
B|--------------------------------------------------------------------------------|
G|---------------------------------------------------------------10-10-10---7-----|
D|-7--7--7-7-7-7--7--7--7-7-7-7--10-10-10101010--10-10-10101010--10-10-10---7-----|
A|-5--5--5-5-5-5--5--5--5-5-5-5--8--8--8-8-8-8---8--8--8-8-8-8---8--8--8----5-----|
E|--------------------------------------------------------------------------------|
 | .  .  . . . .  .  .  . . . .  .  .  . . . .   .  .  . . . .
 |Guitar 2
e|--------------------------------------------------------------------------------|
B|--------------------------------------------------------------------------------|
G|---------------------------------------------------------------10-10-10---7-----|
D|-7--7--7-7-7-7--7--7--7-7-7-7--10-10-10101010--10-10-10101010--10-10-10---7-----|
A|-5--5--5-5-5-5--5--5--5-5-5-5--8--8--8-8-8-8---8--8--8-8-8-8---8--8--8----5-----|
E|--------------------------------------------------------------------------------|
   .  .  . . . .  .  .  . . . .  .  .  . . . .   .  .  . . . .

3:00
 |Guitar 1
e|--------------------------------------------------------------------------------|
B|--------------------------------------------------------------------------------|
G|-6--7--4--7--6--7--4--7--6--7--4--7--6--7--4--7---------------------------------|
D|-6--7--4--7--6--7--4--7--6--7--4--7--6--7--4--7---------------------------------|
A|-4--5--2--5--4--5--2--5--4--5--2--5--4--5--2--5---------------------------------|
E|--------------------------------------------------------------------------------|
 |
 |Guitar 2
e|-9--10--7--10--9--10--7--10--9--10--7--10--9--10--7--10-------------------------|
B|--------------------------------------------------------------------------------|
G|--------------------------------------------------------------------------------|
D|--------------------------------------------------------------------------------|
A|--------------------------------------------------------------------------------|
E|--------------------------------------------------------------------------------|

3:05
 |Guitar 1
e|--------------------------------0----------10--9--10--------------17--22--------|
B|------------------------------------------------------10------18----------------|
G|-------------------------------------7+-------------------19--------------------|
D|-------------4--5--6--6--7--5--------7+-----------------------------------------|
A|-4--5--7--8-------------------8------5+-----------------------------------------|
E|--------------------------------------------------------------------------------|
 |
 |Guitar 2
e|--------------------------------------------------------------------------------|
B|--------------------------------------------------------------------------------|
G|--------------------------------------7+----------------------------------------|
D|-------------4--5--6--6--7--5---------7+----7--6--7-----------------------------|
A|-4--5--7--8-------------------8-7-----5+-------------8--------------------------|
E|-----------------------------------5--------------------------------------------|

************************************

| /   slide up
| \   slide down
| h   hammer-on
| p   pull-off
| ~   vibrato
| +   harmonic
| x   Mute note
| b   Bend
| pb  Pre-bend
| br  Bend release
| pbr Pre-bend release
| brb Bend release bend
| /// Pick scrape

************************************

            
            
Suggest correction
Creating personal tab
Creating personal tab
You can edit any tab online and save it as your Personal.

You can edit, replace or remove any tab part or add personal notes – all changes will be seen only by you.

Personal tabs can be accessed anytime from any device, even offline.
Learn more »
Give kudos to tab author, rate the tab!
1 2 3 4 5
comments
print report bad tab
guest
You may want to rate the tab now too:
select rating
Wanna post a correction for this tab? Suggest correction