Oops, an error
Loading. Please wait.

Methadone tab

version 2
version 2

Whole song

Interactive

614 views 3 this week
no commentswrite comment
1 2 3 4 5
2 more votes to show rating
add to favorites
×
Save as Personal and add changes to this tab that will be seen only by you. Learn more ›
×
You can save this tab as Personal to edit and correct it or add notes. All changes will be seen only by you. Learn more »
launch autoscroll
font size
0
reset
how to read this tab
guitar tuner
edit
Autoscroll
slow
fast
+/-
esc
set tempo
stop
Author
Difficulty
----------------------------------------------------------------------------
                         METHADONE - Rise Against
----------------------------------------------------------------------------
Tabbed By: MrPurple5106
Email: mrpurple5106@gmail.com
Tuning: Eb for all guitars

Clean Verse 1

Guitar 1
E|-----------------------|    ------------------------------------------|    --------|
B|-----------------------|    ------------------------------------------|    --------|
G|-----------------------|    ------------------------------------------|    --------|
D|-9-11-13-9-14-13-11-13-| x8 -9-9-13-9-14-13-11-13-9-9-13-9-14-9-11-13-| x4 -11~----|
A|-----------------------|    ------------------------------------------|    --------|
E|-----------------------|    ------------------------------------------|    --------|
                               . . .  . .  .  .  .  . . .  . .  . .  .
Guitar 2 (listen for it)
E|-------------------------------------------------------------------------0---------|
B|-------------------------------------------------------------------------0---------|
G|-----------------------------------------------------------------------------------|
D|-2-(x8)--------6-(x8)-4-(x8)-2-(x8)--------6-(x16)-2-(x8)--------6-(x16)-----------|
A|-0------4-(x8)-4------2------0------4-(x8)-4-------0------4-(x8)-4---------12p11p9-|
E|--------2---------------------------2---------------------2------------------------|
   .      .      .      .      .      .      .       .      .      .

Pre-Chrous

Guitar 1
E|-------------------------------------------------------------7-7-7-7-7-7-7-7-7-7-7-|
B|-------------------------------------------------------------7-9-9-9-7-9-7-7-7-7-7-|
G|-4-------9-9/1113------14-14/13-11------9------8------6--------------------9-9-9-9-|
D|-4-(x12)-x-x/x-x-(x12)-x--x-/x--x-(x12)-x-(x8)-x-(x8)-x-(x8)-----------------------|
A|-2-------7-7/9-11------12-12/11-9-------7------6------4----------------------------|
E|-----------------------------------------------------------------------------------|

E|-----------------------------------------------------------------------------------|
B|-----------------------------------------------------------------------------------|
G|-4-------6-------4-----------------------------------------------------------------|
D|-4-(x12)-6-(x12)-4-(x12)-4-------6-------7-----------------------------------------|
A|-2-------4-------2-------4-(x12)-7-(x12)-7-(x12)-----------------------------------|
E|-------------------------2-------4-------5-----------------------------------------|

Chorus

Guitar 1
E|-7-7-7-7-7-7-7-7-7-7-7-7-7-7-7-|    -----------------------------------------------|
B|-7-9-9-9-7-9-7-7-7-7-7-7-7-7-7-|    -----------------------------------------------|
G|---------------9-9-9-9-9-9-9-9-|    -13------14------13------11--------------------|
D|-------------------------------| x4 -x--(x8)-x--(x8)-x--(x8)-x--(x8)---------------|
A|-------------------------------|    -11------12------11------9---------------------|
E|-------------------------------|    -----------------------------------------------|

Guitar 2
E|-----------------------------------------------------------------------------------|
B|-----------------------------------------------------------------------------------|
G|-6------2------9-------------------------------------------------------------------|
D|-6-(x8)-2-(x8)-9-(x8)-9------------------------------------------------------------|
A|-4------0------7------9-(x8)-------------------------------------------------------|
E|----------------------7------------------------------------------------------------|

Guitar 1
E|-----------------------|    -------------------------------------------------------|
B|-----------------------|    -------------------------------------------------------|
G|-8------9------16------|    -8------9------16/18\16--------------------------------|
D|-x-(x3)-x-(x3)-x--(x2)-| x3 -x-(x3)-x-(x3)-x-/x-\x---------------------------------|
A|-6------7------14------|    -6------7------14/16\14--------------------------------|
E|-----------------------|    -------------------------------------------------------|

Guitar 2
E|-----------------------------------------------------------------------------------|
B|-----------------------------------------------------------------------------------|
G|-2---------------------------------------------------------------------------------|
D|-2-(x32)---------------------------------------------------------------------------|
A|-0---------------------------------------------------------------------------------|
E|-----------------------------------------------------------------------------------|

Post-Chorus

Guitar 1 
E|-----------------------------------------------------------------------------------|
B|-----------------------------------------------------------------------------------|
G|---------------------------------------------------------13h14---------------------|
D|--16-(x4)-16h18p16p14-14-(x4)-13h14p13p11-11-(x12)-14h16---------------------------|
A|-----------------------------------------------------------------------------------|
E|-----------------------------------------------------------------------------------|
    .                    .                  .
Guitar 2
E|-----------------------------------------------------------------------------------|
B|-----------------------------------------------------------------------------------|
G|-----------------------------------------------------------------------------------|
D|-2-(x8)--------6-(x16)-------------------------------------------------------------|
A|-0------4-(x8)-4-------------------------------------------------------------------|
E|--------2--------------------------------------------------------------------------|
   .      .      .

Verse 2

Guitar 1
E|-----------------------------------------------------------------------------------|
B|-----------------------------------------------------------------------------------|
G|-----------------------------------------------------------------------------------|
D|-2-(x8)--------6-(x16)-2-(x8)--------6-(x8)-4-(x8)---------------------------------|
A|-0------4-(x8)-4-------0------4-(x8)-4------2--------------------------------------|
E|--------2---------------------2----------------------------------------------------|
   .      .      .       .      .      .      .
Guitar 2
E|-----------------------------------------------------------------------------------|
B|-----------------------------------------------------------------------------------|
G|-----------------------------------------------------------------------------------|
D|-2-(x8)--------6-(x16)-2-(x8)--------6-(x8)-4-(x8)---------------------------------|
A|-0------4-(x8)-4-------0------4-(x8)-4------2--------------------------------------|
E|--------2---------------------2----------------------------------------------------|
   .      .      .       .      .      .      .

Guitar 1
E|-----------------------------------------------------------------------------------|
B|-----------------------------------------------------------------------------------|
G|-----------------------------------------------------------------------------------|
D|--9-9-13-9-14-13-11-13-9-9-13-9-14-9-11-13-----------------------------------------| x4
A|-----------------------------------------------------------------------------------|
E|-----------------------------------------------------------------------------------|
    . . .  . .  .  .  .  . . .  . .  . .  .
Guitar 2
E|-----------------------------------------------------------------------------------|
B|-----------------------------------------------------------------------------------|
G|-----------------------------------------------------------------------------------|
D|-2-(x8)--------6-(x8)-4-(x8)-2-(x8)--------6-(x16)---------------------------------|
A|-0------4-(x8)-4------2------0------4-(x8)-4-------12p11p9-------------------------|
E|--------2---------------------------2----------------------------------------------|
   .      .      .      .      .      .      .

Pre-Chorus (For the end riff, Guitar 1 holds 9 on the D-string, and Guitar 2 scratches)

Chorus

Solo

Guitar 1
E|-----------------------------------------------------------------------------------|
B|-----------------------------------------------------------------------------------|
G|-1113-13-13-13-13-13-13-13-14\13-13\11119-9-9/11111111111113-13\11119--------------|
D|-x/x--x--x--x--x--x--x--x--x-\x--x-\x-x\x-x-x/x-x-x-x-x-x-x--x-\x-x\x--------------|
A|-9/11-11-11-11-11-11-11-11-12\11-11\9-9\7-7-7/9-9-9-9-9-9-11-11\9-9\7--------------|
E|-----------------------------------------------------------------------------------|

Guitar 2
E|-----------------------------------------------------------------------------------|
B|-----------------------------------------------------------------------------------|
G|-9---------------------------------------------------------------------------------|
D|-9-(x16)-----------------------------------4---------------------------------------|
A|-7-----------------------------------------4-(x16)---------------------------------|
E|-------------------------------------------2---------------------------------------|

Guitar 1
E|-----------------------------------------------------------------------------------|
B|-----------------------------------------------------------------------------------|
G|-1113-13-13-13-13-13-13-13-14\13-13\11119-9-9/11111111111113-13\11119-9\8----------|
D|-x/x--x--x--x--x--x--x--x--x-\x--x-\x-x\x-x-x/x-x-x-x-x-x-x--x-\x-x\x-x\x----------|
A|-9/11-11-11-11-11-11-11-11-12\11-11\9-9\7-7-7/9-9-9-9-9-9-11-11\9-9\7-7\6----------|
E|-----------------------------------------------------------------------------------|

Guitar 2
E|-----------------------------------------------------------------------------------|
B|-----------------------------------------------------------------------------------|
G|-9---------------------------------------------------------------------------------|
D|-9-(x16)-----------------------------------4---------------------------------------|
A|-7-----------------------------------------4-(x16)---------------------------------|
E|-------------------------------------------2---------------------------------------|

Guitar 1
E|--------------------------------------------------------------------------7-7------|
B|-----------------------------------------------------------------------------------|
G|-1315-1315-13-13-13-111113-119-9\6-6-1113-1113-13-13-13-11113--1311-119-9----------|
D|-x/x--x/x--x--x--x--x-x/x--x\x-x\x-x-x/x--x/x--x--x--x--x-x/x--x\x--x\x-x----------|
A|-9/11-9/11-11-11-11-9-9/11-9\7-7\4-4-9/11-9/11-11-11-11-9-9/11-11\9-9\7-7----------|
E|-----------------------------------------------------------------------------------|

Guitar 2
E|-----------------------------------------------------------------------------------|
B|-----------------------------------------------------------------------------------|
G|-6---------------------------------------------------------------------------------|
D|-6-(x16)-----------------------------------6---------------------------------------|
A|-4-----------------------------------------7-(x16)---------------------------------|
E|-------------------------------------------4---------------------------------------|


Guitar 1
E|-0-0-0-0-0-0-0-0-0-0-0-0-0-0-0-0-0-0-0-0-0-0-0-0-0-0-0-0-0-0--0--------------------|
B|-1010109-9-9-1212129-9-9-9-10109-9-7-7-7-5-5-5-4-4-4-5-5-5-4--0--------------------|
G|-----------------------------------------------------------------------------------|
D|-----------------------------------------------------------------------------------|
A|-----------------------------------------------------------------------------------|
E|-----------------------------------------------------------------------------------|


Guitar 2
E|-----------------------------------------------------------------------------------|
B|-----------------------------------------------------------------------------------|
G|-----------------------------------------------------------------------------------|
D|-7-----------------------------------------9---------------------------------------|
A|-7-(x16)-----------------------------------9-(x16)---------------------------------|
E|-5-----------------------------------------7---------------------------------------|

Bridge (Only one guitar)
                                            (For second time around, play
Guitar 1                                       this as a full chord) 
E|-----0-------0-----0-------0-----0-------0-------0-------0-------------------------|
B|-----0-------0-----0-------0-----0-------0-------0-------0-------------------------|
G|-----------------------------------------------------------------------------------|
D|---6---6---6-----6---6---6-----6---6---6---6---6---6---6---------------------------| x2
A|-4-------0-------------------4---------------0-------0-----------------------------|
E|---------------0-------2-------------4---------------------------------------------|


Chorus (Instead of playing 4, play 5)

Outro

Guitar 1
E|-----------------------|    -------------------------------------------------------|
B|-----------------------|    -------------------------------------------------------|
G|-8------9------16------|    -9\8--8/9----------------------------------------------|
D|-x-(x3)-x-(x3)-x--(x2)-| x8 -x\x--x/x----------------------------------------------|
A|-6------7------14------|    -7\6--6/7----------------------------------------------|
E|-----------------------|    -------------------------------------------------------|

Guitar 2
E|-----------------------------------------------------------------------------------|
B|-----------------------------------------------------------------------------------|
G|-2---------------------------------------------------------------------------------|
D|-2---------------------------------------------------------------------------------|
A|-0---------------------------------------------------------------------------------|
E|-----------------------------------------------------------------------------------|

(Guitar 1 intro fades out, and it’s most likely overdubbed.)

************************************

| /   slide up
| \   slide down
| h   hammer-on
| p   pull-off
| ~   vibrato
| +   harmonic
| x   Mute note
| b   Bend
| pb  Pre-bend
| br  Bend release
| pbr Pre-bend release
| brb Bend release bend

************************************

            
            
Suggest correction
Creating personal tab
Creating personal tab
You can edit any tab online and save it as your Personal.

You can edit, replace or remove any tab part or add personal notes – all changes will be seen only by you.

Personal tabs can be accessed anytime from any device, even offline.
Learn more »
Give kudos to tab author, rate the tab!
1 2 3 4 5
comments
print report bad tab
guest
You may want to rate the tab now too:
select rating
Wanna post a correction for this tab? Suggest correction