Oops, an error
Loading. Please wait.
We have an official Paper Wings tab made by UG professional guitarists. Check out the tab »
×

Paper Wings Acoustic tab

version 7
version 7

Whole song

67 views 3 this week
no commentswrite comment
1 2 3 4 5
1 last vote to show rating
add to favorites
×
Save as Personal and add changes to this tab that will be seen only by you. Learn more ›
×
You can save this tab as Personal to edit and correct it or add notes. All changes will be seen only by you. Learn more »
launch autoscroll
font size
0
reset
how to read this tab
guitar tuner
edit
Autoscroll
slow
fast
+/-
esc
set tempo
stop
About this tab version
This is the acoustic cover of Paper Wings, covered by Matias Riquelme. Was this info helpful? Yes No
Artist: Matías Riquelme (Originally by Rise Against)
Song: Paper Wings (Acoustic Cover)
This acoustic version can be found here: https://www.youtube.com/watch?v=7pxZNQSD5bA&feature=youtu.be

Tuning: Eb Ab Db Gb Bb eb
Capo: 5th fret
- You can do this standard tuning and a capo on the 4th fret.
- This is just how Matías does it.

Each verse, pre-chorus and chorus is the same (except for Verse 3), but I tabbed it all for if you wanted
  to read the lyrics while playing.

[Intro]
    E Q   Q   E E E      E Q   Q   E E E      E Q   Q   E E E      E Q   Q   E E E
e|--0-0---0---0-0-0---|--0-0---0---0-0-0---|--0-0---0---0-0-0---|--0-0---0---0-0-0---|
B|o-0-0---0---0-0-0---|--0-0---0---0-0-0---|--0-0---0---0-0-0---|--0-0---0---0-0-0---|
G|--9-9---9---9-9-9---|--9-9---9---9-9-9---|--9-9---9---9-9-9---|--9-9---9---9-9-9---|
D|--9-9---9---9-9-9---|--9-9---9---9-9-9---|--9-9---9---9-9-9---|--6-6---6---6-6-6---|
A|o-7-7---7---7-7-7---|--7-7---7---7-7-7---|--6-6---6---6-6-6---|--6-6---6---6-6-6---|
E|--------------------|--------------------|--------------------|--------------------|

    E Q   Q   E E E      E Q   Q   E E E      E Q   Q   E E E      E Q   Q   E E E   (x2)
e|--0-0---0---0-0-0---|--0-0---0---0-0-0---|--0-0---0---0-0-0---|--0-0---0---0-0-0---|
B|--0-0---0---0-0-0---|--0-0---0---0-0-0---|--0-0---0---0-0-0---|--0-0---0---0-0-0--o|
G|--6-6---6---6-6-6---|--6-6---6---6-6-6---|--2-2---2---2-2-2---|--2-2---2---2-2-2---|
D|--6-6---6---6-6-6---|--6-6---6---6-6-6---|--2-2---2---2-2-2---|--2-2---2---2-2-2---|
A|--4-4---4---4-4-4---|--4-4---4---4-4-4---|--0-0---0---0-0-0---|--0-0---0---0-0-0--o|
E|--------------------|--------------------|--------------------|--------------------|

[Verse 1]
  One last thing I beg you please,          just before you go,
    Q   Q   E E E E     +E E Q   E E Q        Q   E E E E E E     +E E Q   E E Q
e|--0---0---x-x-x-0---|----0-0---0-0-0-----|--0---0-0-x-0-x-0---|----0-0---0-0-0-----|
B|--0---0---x-x-x-0---|----0-0---0-0-0-----|--0---0-0-x-0-x-0---|----0-0---0-0-0-----|
G|--6---6---x-x-x-1---|----1-1---1-1-1-----|--4---4-4-x-6-x-2---|----2-2---2-2-2-----|
D|--6---6---x-x-x-2---|----2-2---2-2-2-----|--4---4-4-x-6-x-2---|----2-2---2-2-2-----|
A|--4---4---x-x-x-2---|----2-2---2-2-2-----|--2---2-2-x-4-x-0---|----0-0---0-0-0-----|
E|----------x-x-x-0---|----0-0---0-0-0-----|----------x---x-----|--------------------|

  I've watched you fly on paper wings,      halfway around the world until they,
    Q   Q   E E E E     +E E Q   E E Q        Q   Q   E Q   E     +E E Q   E E Q
e|--0---0---x-x-x-0---|----0-0---0-0-0-----|--0---0---0-0---0---|----0-0---0-0-0-----|
B|--0---0---x-x-x-0---|----0-0---0-0-0-----|--0---0---0-0---0---|----0-0---0-0-0-----|
G|--6---6---x-x-x-1---|----1-1---1-1-1-----|--4---4---4-4---2---|----2-2---2-2-2-----|
D|--6---6---x-x-x-2---|----2-2---2-2-2-----|--4---4---4-4---2---|----2-2---2-2-2-----|
A|--4---4---x-x-x-2---|----2-2---2-2-2-----|--2---2---2-2---0---|----0-0---0-0-0-----|
E|----------x-x-x-0---|----0-0---0-0-0-----|--------------------|--------------------|

  Burned up in the atmosphere,              and sent you spiraling down,
    Q   Q   E E E E     +E E Q   E E Q        Q   E E E E E E     +E E Q   E E Q
e|--0---0---x-x-x-0---|----0-0---0-0-0-----|--0---0-0-x-0-x-0---|----0-0---0-0-0-----|
B|--0---0---x-x-x-0---|----0-0---0-0-0-----|--0---0-0-x-0-x-0---|----0-0---0-0-0-----|
G|--6---6---x-x-x-1---|----1-1---1-1-1-----|--4---4-4-x-6-x-2---|----2-2---2-2-2-----|
D|--6---6---x-x-x-2---|----2-2---2-2-2-----|--4---4-4-x-6-x-2---|----2-2---2-2-2-----|
A|--4---4---x-x-x-2---|----2-2---2-2-2-----|--2---2-2-x-4-x-0---|----0-0---0-0-0-----|
E|----------x-x-x-0---|----0-0---0-0-0-----|----------x---x-----|--------------------|

  Landing somewhere far from here with,
    Q   Q   E E E E     +E E Q   E E Q      
e|--0---0---x-x-x-0---|----0-0---0-0-0-----|
B|--0---0---x-x-x-0---|----0-0---0-0-0-----|
G|--6---6---x-x-x-1---|----1-1---1-1-1-----|
D|--6---6---x-x-x-2---|----2-2---2-2-2-----|
A|--4---4---x-x-x-2---|----2-2---2-2-2-----|
E|----------x-x-x-0---|----0-0---0-0-0-----|

[Pre-Chorus 1]
  No one else around,                       to catch you falling down,
    Q   Q   E E E E      Q   Q   E Q   E     +E E Q   E E E E      Q   E Q   E E E
e|--0---0---0-0-0-0---|--0---0---0-0---0---|----0-0---0-0-0-0---|--0---0-0---0-0-0---|
B|--0---0---0-0-0-0---|--0---0---0-0---0---|----0-0---0-0-0-0---|--0---0-0---0-0-0---|
G|--4---4---4-4-4-4---|--4---4---4-4---2---|----2-2---2-2-2-2---|--2---2-2---2-2-4---|
D|--4---4---4-4-4-4---|--4---4---4-4---2---|----2-2---2-2-2-2---|--2---2-2---2-2-4---|
A|--2---2---2-2-2-2---|--2---2---2-2---0---|----0-0---0-0-0-0---|--0---0-0---0-0-2---|
E|--------------------|--------------------|--------------------|--------------------|

  And I'm looking at you now and,
    Q   Q   E E E E      Q   Q   E Q   E      Q   Q   E E E E     +E E Q   E E E E
e|--0---0---0-0-0-0---|--0---0---0-0---0---|--0---0---0-0-0-0---|----0-0---0-0-0-0---|
B|--0---0---0-0-0-0---|--0---0---0-0---0---|--0---0---0-0-0-0---|----0-0---0-0-0-0---|
G|--4---4---4-4-4-4---|--4---4---4-4---4---|--2---2---2-2-2-2---|----2-2---2-2-2-2---|
D|--4---4---4-4-4-4---|--4---4---4-4---4---|--2---2---2-2-2-2---|----2-2---2-2-2-2---|
A|--2---2---2-2-2-2---|--2---2---2-2---2---|--0---0---0-0-0-0---|----0-0---0-0-0-0---|
E|--------------------|--------------------|--------------------|--------------------|

[Chorus 1]
  I can't tell if you're laughing,
  There's a train leaving town in an hour,
    E Q   Q   E E E      E Q   Q   E E E      E Q   Q   E E E      E Q   Q   E E E
e|--0-0---0---0-0-0---|--0-0---0---0-0-0---|--0-0---0---0-0-0---|--0-0---0---0-0-0---|
B|o-0-0---0---0-0-0---|--0-0---0---0-0-0---|--0-0---0---0-0-0---|--0-0---0---0-0-0---|
G|--9-9---9---9-9-9---|--9-9---9---9-9-9---|--9-9---9---9-9-9---|--9-9---9---9-9-9---|
D|--9-9---9---9-9-9---|--9-9---9---9-9-9---|--9-9---9---9-9-9---|--6-6---6---6-6-6---|
A|o-7-7---7---7-7-7---|--7-7---7---7-7-7---|--6-6---6---6-6-6---|--6-6---6---6-6-6---|
E|--------------------|--------------------|--------------------|--------------------|

  Between each smile there's a tear in your eye,
  It's not waiting for you,                 and neither am I,
    E Q   Q   E E E      E Q   Q   E E E      E Q   Q   E E E      E Q   Q   E E E   (x2)
e|--0-0---0---0-0-0---|--0-0---0---0-0-0---|--0-0---0---0-0-0---|--0-0---0---0-0-0---|
B|--0-0---0---0-0-0---|--0-0---0---0-0-0---|--0-0---0---0-0-0---|--0-0---0---0-0-0--o|
G|--6-6---6---6-6-6---|--6-6---6---6-6-6---|--2-2---2---2-2-2---|--2-2---2---2-2-2---|
D|--6-6---6---6-6-6---|--6-6---6---6-6-6---|--2-2---2---2-2-2---|--2-2---2---2-2-2---|
A|--4-4---4---4-4-4---|--4-4---4---4-4-4---|--0-0---0---0-0-0---|--0-0---0---0-0-0--o|
E|--------------------|--------------------|--------------------|--------------------|

[Verse 2]
  Swing for the fences son,                 he must have told you once,
    Q   Q   E E E E     +E E Q   E E Q        Q   E E E E E E     +E E Q   E E Q
e|--0---0---x-x-x-0---|----0-0---0-0-0-----|--0---0-0-x-0-x-0---|----0-0---0-0-0-----|
B|--0---0---x-x-x-0---|----0-0---0-0-0-----|--0---0-0-x-0-x-0---|----0-0---0-0-0-----|
G|--6---6---x-x-x-1---|----1-1---1-1-1-----|--4---4-4-x-6-x-2---|----2-2---2-2-2-----|
D|--6---6---x-x-x-2---|----2-2---2-2-2-----|--4---4-4-x-6-x-2---|----2-2---2-2-2-----|
A|--4---4---x-x-x-2---|----2-2---2-2-2-----|--2---2-2-x-4-x-0---|----0-0---0-0-0-----|
E|----------x-x-x-0---|----0-0---0-0-0-----|----------x---x-----|--------------------|

  But that was a conversation,              you took nothing from so raise a,
    Q   Q   E E E E     +E E Q   E E Q        Q   Q   E Q   E     +E E Q   E E Q
e|--0---0---x-x-x-0---|----0-0---0-0-0-----|--0---0---0-0---0---|----0-0---0-0-0-----|
B|--0---0---x-x-x-0---|----0-0---0-0-0-----|--0---0---0-0---0---|----0-0---0-0-0-----|
G|--6---6---x-x-x-1---|----1-1---1-1-1-----|--4---4---4-4---2---|----2-2---2-2-2-----|
D|--6---6---x-x-x-2---|----2-2---2-2-2-----|--4---4---4-4---2---|----2-2---2-2-2-----|
A|--4---4---x-x-x-2---|----2-2---2-2-2-----|--2---2---2-2---0---|----0-0---0-0-0-----|
E|----------x-x-x-0---|----0-0---0-0-0-----|--------------------|--------------------|

  Glass now and celebrate,                  exactly what you've done,
    Q   Q   E E E E     +E E Q   E E Q        Q   E E E E E E     +E E Q   E E Q
e|--0---0---x-x-x-0---|----0-0---0-0-0-----|--0---0-0-x-0-x-0---|----0-0---0-0-0-----|
B|--0---0---x-x-x-0---|----0-0---0-0-0-----|--0---0-0-x-0-x-0---|----0-0---0-0-0-----|
G|--6---6---x-x-x-1---|----1-1---1-1-1-----|--4---4-4-x-6-x-2---|----2-2---2-2-2-----|
D|--6---6---x-x-x-2---|----2-2---2-2-2-----|--4---4-4-x-6-x-2---|----2-2---2-2-2-----|
A|--4---4---x-x-x-2---|----2-2---2-2-2-----|--2---2-2-x-4-x-0---|----0-0---0-0-0-----|
E|----------x-x-x-0---|----0-0---0-0-0-----|----------x---x-----|--------------------|

  Just put off another day of,
    Q   Q   E E E E     +E E Q   E E Q      
e|--0---0---x-x-x-0---|----0-0---0-0-0-----|
B|--0---0---x-x-x-0---|----0-0---0-0-0-----|
G|--6---6---x-x-x-1---|----1-1---1-1-1-----|
D|--6---6---x-x-x-2---|----2-2---2-2-2-----|
A|--4---4---x-x-x-2---|----2-2---2-2-2-----|
E|----------x-x-x-0---|----0-0---0-0-0-----|

[Pre-Chorus 2]
  Knowing where your from,                                       you can catch up with yourself,
    Q   Q   E E E E      Q   Q   E Q   E     +E E Q   E E E E      Q   E Q   E E E
e|--0---0---0-0-0-0---|--0---0---0-0---0---|----0-0---0-0-0-0---|--0---0-0---0-0-0---|
B|--0---0---0-0-0-0---|--0---0---0-0---0---|----0-0---0-0-0-0---|--0---0-0---0-0-0---|
G|--4---4---4-4-4-4---|--4---4---4-4---2---|----2-2---2-2-2-2---|--2---2-2---2-2-4---|
D|--4---4---4-4-4-4---|--4---4---4-4---2---|----2-2---2-2-2-2---|--2---2-2---2-2-4---|
A|--2---2---2-2-2-2---|--2---2---2-2---0---|----0-0---0-0-0-0---|--0---0-0---0-0-2---|
E|--------------------|--------------------|--------------------|--------------------|

                       If you run,
    Q   Q   E E E E      Q   Q   E Q   E      Q   Q   E E E E     +E E Q   E E E E
e|--0---0---0-0-0-0---|--0---0---0-0---0---|--0---0---0-0-0-0---|----0-0---0-0-0-0---|
B|--0---0---0-0-0-0---|--0---0---0-0---0---|--0---0---0-0-0-0---|----0-0---0-0-0-0---|
G|--4---4---4-4-4-4---|--4---4---4-4---4---|--2---2---2-2-2-2---|----2-2---2-2-2-2---|
D|--4---4---4-4-4-4---|--4---4---4-4---4---|--2---2---2-2-2-2---|----2-2---2-2-2-2---|
A|--2---2---2-2-2-2---|--2---2---2-2---2---|--0---0---0-0-0-0---|----0-0---0-0-0-0---|
E|--------------------|--------------------|--------------------|--------------------|

[Chorus 2]
  I can't tell if you're laughing,
  There's a train leaving town in an hour,
    E Q   Q   E E E      E Q   Q   E E E      E Q   Q   E E E      E Q   Q   E E E
e|--0-0---0---0-0-0---|--0-0---0---0-0-0---|--0-0---0---0-0-0---|--0-0---0---0-0-0---|
B|o-0-0---0---0-0-0---|--0-0---0---0-0-0---|--0-0---0---0-0-0---|--0-0---0---0-0-0---|
G|--9-9---9---9-9-9---|--9-9---9---9-9-9---|--9-9---9---9-9-9---|--9-9---9---9-9-9---|
D|--9-9---9---9-9-9---|--9-9---9---9-9-9---|--9-9---9---9-9-9---|--6-6---6---6-6-6---|
A|o-7-7---7---7-7-7---|--7-7---7---7-7-7---|--6-6---6---6-6-6---|--6-6---6---6-6-6---|
E|--------------------|--------------------|--------------------|--------------------|

  Between each smile there's a tear in your eye,
  It's not waiting for you,                 and neither am I,
    E Q   Q   E E E      E Q   Q   E E E      E Q   Q   E E E      E Q   Q   E E E   (x2)
e|--0-0---0---0-0-0---|--0-0---0---0-0-0---|--0-0---0---0-0-0---|--0-0---0---0-0-0---|
B|--0-0---0---0-0-0---|--0-0---0---0-0-0---|--0-0---0---0-0-0---|--0-0---0---0-0-0--o|
G|--6-6---6---6-6-6---|--6-6---6---6-6-6---|--2-2---2---2-2-2---|--2-2---2---2-2-2---|
D|--6-6---6---6-6-6---|--6-6---6---6-6-6---|--2-2---2---2-2-2---|--2-2---2---2-2-2---|
A|--4-4---4---4-4-4---|--4-4---4---4-4-4---|--0-0---0---0-0-0---|--0-0---0---0-0-0--o|
E|--------------------|--------------------|--------------------|--------------------|

[Interlude]
    Q   Q   E E E E     +E E Q   E E E E      Q   Q   E E E E     +E E Q   E E E E
e|--0---0---0-0-0-0---|----0-0---0-0-0-0---|--0---0---0-0-0-0---|----0-0---0-0-0-0---|
B|--0---0---0-0-0-0---|----0-0---0-0-0-0---|--0---0---0-0-0-0---|----0-0---0-0-0-0---|
G|--1---1---1-1-1-1---|----1-1---1-1-1-1---|--1---1---1-1-1-1---|----1-1---1-1-1-1---|
D|--2---2---2-2-2-2---|----2-2---2-2-2-2---|--2---2---2-2-2-2---|----2-2---2-2-2-2---|
A|--2---2---2-2-2-2---|----2-2---2-2-2-2---|--2---2---2-2-2-2---|----2-2---2-2-2-2---|
E|--0---0---0-0-0-0---|----0-0---0-0-0-0---|--0---0---0-0-0-0---|----0-0---0-0-0-0---|

    Q   Q   E E E E     +E E Q   E E E E     +E E Q   E E E E     +E E E E E E E E   (x3)
e|--0---0---0-0-0-0---|----0-0---0-0-0-0---|----0-0---0-0-0-0---|----0-0-0-0-0-0-0---|
B|o-0---0---0-0-0-0---|----0-0---0-0-0-0---|----0-0---0-0-0-0---|----0-0-0-0-0-0-0--o|
G|--1---1---1-1-1-4---|----4-4---4-4-4-2---|----2-2---2-2-2-2---|----2-2-2-4-4-4-4---|
D|--2---2---2-2-2-4---|----4-4---4-4-4-2---|----2-2---2-2-2-2---|----2-2-2-4-4-4-4---|
A|o-2---2---2-2-2-2---|----2-2---2-2-2-0---|----0-0---0-0-0-0---|----0-0-0-2-2-2-2--o|
E|--0---0---0-0-0-----|--------------------|--------------------|--------------------|

    Q   Q   E E E E     +E E Q   E E E E     +E E Q   E E Q        E E Q   E E E E
e|--0---0---0-0-0-0---|----0-0---0-0-0-0---|----0-0---0-0-0-----|--0-0-0---0-0-0-0---|
B|--0---0---0-0-0-0---|----0-0---0-0-0-0---|----0-0---0-0-0-----|--0-0-0---0-0-0-0---|
G|--1---1---1-1-1-4---|----4-4---4-4-4-2---|----2-2---2-2-2-----|--2-2-2---2-2-2-4---|
D|--2---2---2-2-2-4---|----4-4---4-4-4-2---|----2-2---2-2-2-----|--2-2-2---2-2-2-4---|
A|--2---2---2-2-2-2---|----2-2---2-2-2-0---|----0-0---0-0-0-----|--0-0-0---0-0-0-2---|
E|--0---0---0-0-0-----|--------------------|--------------------|--------------------|

   +E E Q   E E Q        E E Q   E E E E
e|----0-0---0-0-0-----|--0-0-0---0-0-0-0---|
B|----0-0---0-0-0-----|--0-0-0---0-0-0-0---|
G|----4-4---4-4-4-----|--4-4-4---4-4-4-4---|
D|----4-4---4-4-4-----|--4-4-4---4-4-4-4---|
A|----2-2---2-2-2-----|--2-2-2---2-2-2-2---|
E|--------------------|--------------------|

[Verse 3]
  Is this the life that you lead?           Or the life that's led for you?
    W                   +W                    W                   +W
e|--0-----------------|--------------------|--0-----------------|--------------------|
B|--0-----------------|--------------------|--0-----------------|--------------------|
G|--1-----------------|--------------------|--4-----------------|--------------------|
D|--2-----------------|--------------------|--6-----------------|--------------------|
A|--2-----------------|--------------------|--6-----------------|--------------------|
E|--0-----------------|--------------------|--------------------|--------------------|

  Will you take the road,                   that's been laid out before you?
    W                   +W                    W                   +W
e|--0-----------------|--------------------|--0-----------------|--------------------|
B|--0-----------------|--------------------|--0-----------------|--------------------|
G|--6-----------------|--------------------|--2-----------------|--------------------|
D|--6-----------------|--------------------|--2-----------------|--------------------|
A|--4-----------------|--------------------|--0-----------------|--------------------|
E|--------------------|--------------------|--------------------|--------------------|

  Will we cross paths,                      somewhere else tonight?
    W                   +W                    W                   +W
e|--0-----------------|--------------------|--0-----------------|--------------------|
B|--0-----------------|--------------------|--0-----------------|--------------------|
G|--1-----------------|--------------------|--4-----------------|--------------------|
D|--2-----------------|--------------------|--6-----------------|--------------------|
A|--2-----------------|--------------------|--6-----------------|--------------------|
E|--0-----------------|--------------------|--------------------|--------------------|

                                            Somewhere else..
    W                   +W                    W                    E (Q.)  (H)
e|--0-----------------|--------------------|--0-----------------|--0-----------------|
B|--0-----------------|--------------------|--0-----------------|--0-----------------|
G|--6-----------------|--------------------|--2-----------------|--2-----------------|
D|--6-----------------|--------------------|--2-----------------|--2-----------------|
A|--4-----------------|--------------------|--0-----------------|--0-----------------|
E|--------------------|--------------------|--------------------|--------------------|

[Chorus 3] Notice how the strumming pattern changes on the second round
  I can't tell if you're laughing,
  There's a train leaving town in an hour,
    E Q   Q   E E E      E Q   Q   E E E      E Q   Q   E E E      E Q   Q   E E E
e|--0-0---0---0-0-0---|--0-0---0---0-0-0---|--0-0---0---0-0-0---|--0-0---0---0-0-0---|
B|o-0-0---0---0-0-0---|--0-0---0---0-0-0---|--0-0---0---0-0-0---|--0-0---0---0-0-0---|
G|--9-9---9---9-9-9---|--9-9---9---9-9-9---|--9-9---9---9-9-9---|--9-9---9---9-9-9---|
D|--9-9---9---9-9-9---|--9-9---9---9-9-9---|--9-9---9---9-9-9---|--6-6---6---6-6-6---|
A|o-7-7---7---7-7-7---|--7-7---7---7-7-7---|--6-6---6---6-6-6---|--6-6---6---6-6-6---|
E|--------------------|--------------------|--------------------|--------------------|

  Between each smile there's a tear in your eye,
  It's not waiting for you,                 and neither am I,
    E Q   Q   E E E      E Q   Q   E E E      E Q   Q   E E E      E Q   Q   E E E   (x2)
e|--0-0---0---0-0-0---|--0-0---0---0-0-0---|--0-0---0---0-0-0---|--0-0---0---0-0-0---|
B|--0-0---0---0-0-0---|--0-0---0---0-0-0---|--0-0---0---0-0-0---|--0-0---0---0-0-0--o|
G|--6-6---6---6-6-6---|--6-6---6---6-6-6---|--2-2---2---2-2-2---|--2-2---2---2-2-2---|
D|--6-6---6---6-6-6---|--6-6---6---6-6-6---|--2-2---2---2-2-2---|--2-2---2---2-2-2---|
A|--4-4---4---4-4-4---|--4-4---4---4-4-4---|--0-0---0---0-0-0---|--0-0---0---0-0-0--o|
E|--------------------|--------------------|--------------------|--------------------|

  I can't tell if you're laughing,
  There's a train leaving town in an hour,
    Q   Q   E E E E     +E E Q   E E E E      Q   Q   E E E E     +E E Q   E E E E
e|--0---0---0-0-0-0---|----0-0---0-0-0-0---|--0---0---0-0-0-0---|----0-0---0-0-0-0---|
B|o-0---0---0-0-0-0---|----0-0---0-0-0-0---|--0---0---0-0-0-0---|----0-0---0-0-0-0---|
G|--9---9---9-9-9-9---|----9-9---9-9-9-9---|--9---9---9-9-9-9---|----9-9---9-9-9-9---|
D|--9---9---9-9-9-9---|----9-9---9-9-9-9---|--9---9---9-9-9-9---|----6-6---6-6-6-6---|
A|o-7---7---7-7-7-7---|----7-7---7-7-7-7---|--6---6---6-6-6-6---|----6-6---6-6-6-6---|
E|--------------------|--------------------|--------------------|--------------------|

  Between each smile there's a tear in your eye,
  It's not waiting for you,                 and neither am I,
    Q   Q   E E E E     +E E Q   E E E E      Q   Q   E E E E     +E E Q   E E E E(x2)
e|--0---0---0-0-0-0---|----0-0---0-0-0-0---|--0---0---0-0-0-0---|----0-0---0-0-0-0---|
B|--0---0---0-0-0-0---|----0-0---0-0-0-0---|--0---0---0-0-0-0---|----0-0---0-0-0-0--o|
G|--6---6---6-6-6-6---|----6-6---6-6-6-6---|--2---2---2-2-2-2---|----2-2---2-2-2-2---|
D|--6---6---6-6-6-6---|----6-6---6-6-6-6---|--2---2---2-2-2-2---|----2-2---2-2-2-2---|
A|--4---4---4-4-4-4---|----4-4---4-4-4-4---|--0---0---0-0-0-0---|----0-0---0-0-0-0--o|
E|--------------------|--------------------|--------------------|--------------------|

    -
e|--0-----------------|
B|--0-----------------|
G|--1-----------------|
D|--2-----------------|
A|--2-----------------|
E|--0-----------------|

************************************

|  x   Dead note
|  E   Eighth note
|  Q   Quarter note
|  H   Half note
|  W   Whole note
|  .   Dotted note
| (N)  Rest
|  +   Add note value
|o o|  Reprise

************************************

            
            
Suggest correction
Creating personal tab
Creating personal tab
You can edit any tab online and save it as your Personal.

You can edit, replace or remove any tab part or add personal notes – all changes will be seen only by you.

Personal tabs can be accessed anytime from any device, even offline.
Learn more »
Give kudos to tab author, rate the tab!
1 2 3 4 5
comments
print report bad tab
guest
You may want to rate the tab now too:
select rating
Wanna post a correction for this tab? Suggest correction