Oops, an error
Loading. Please wait.
We have an official Re-Education tab made by UG professional guitarists. Check out the tab »
×
31 views 1 this week
no commentswrite comment
1 2 3 4 5
2 more votes to show rating
add to favorites
×
Save as Personal and add changes to this tab that will be seen only by you. Learn more ›
×
You can save this tab as Personal to edit and correct it or add notes. All changes will be seen only by you. Learn more »
launch autoscroll
font size
0
reset
how to read this tab
guitar tuner
edit
Autoscroll
slow
fast
+/-
esc
set tempo
stop
Artist: Rise Against
Song: Re-Education (Through Labor)
Album: Appeal To Reason (2008)

Guitar 1 (Eb Ab Db Gb Bb eb) - 'Tim McIlrath - Distortion, Rhythm'
Guitar 2 (Eb Ab Db Gb Bb eb) - 'Zach Blair - Distortion, Rhythm'
Guitar 3 (Eb Ab Db Gb Bb eb) - 'Zach Blair - Distortion, Lead'

[Intro]
4/4
   Gtr 1
     E E E E E E E E      E E E E E E E E      E E E E E E E E      E E E E E E E E
eb||--------------------|--------------------|--------------------|--------------------|
Bb||--------------------|--------------------|--------------------|--------------------|
Gb||--------------------|--------------------|--------------------|--------------------|
Db||--2-2-2-2-2-2-2-2---|--2-2-2-2-2-2-2-2---|--2-2-2-2-2-2-2-2---|--2-2-2-2-2-2-2-2---|
Ab||--2-2-2-2-2-2-2-2---|--2-2-2-2-2-2-2-2---|--2-2-2-2-2-2-2-2---|--2-2-2-2-2-2-2-2---|
Eb||--0-0-0-0-0-0-0-0---|--0-0-0-0-0-0-0-0---|--0-0-0-0-0-0-0-0---|--0-0-0-0-0-0-0-0---|
PM||  . . . . . . . .   |  . . . . . . . .   |  . . . . . . . .   |  . . . . . . . .   |

   Gtr 1
     E E E E E E E E      E E E E E E E E      E E E E E E E E      E E E E E E E(E)
eb|--------------------|--------------------|--------------------|--------------------|
Bb|--------------------|--------------------|--------------------|--------------------|
Gb|--------------------|--------------------|--------------------|--------------------|
Db|--2-2-2-2-2-2-2-2---|--2-2-2-2-2-2-2-2---|--2-2-2-2-2-2-2-2---|--2-2-2-2-2-2-2-----|
Ab|--2-2-2-2-2-2-2-2---|--2-2-2-2-2-2-2-2---|--2-2-2-2-2-2-2-2---|--2-2-2-2-2-2-2-----|
Eb|--0-0-0-0-0-0-0-0---|--0-0-0-0-0-0-0-0---|--0-0-0-0-0-0-0-0---|--0-0-0-0-0-0-0-----|
PM|  . . . . . . . .   |  . . . . . . . .   |  . . . . . . . .   |  .                 |
  |Gtr 2               |                    |                    |                    |
  |  Q   E E E E E E   |  E E E E E E E E   |  Q   E E E E E E   |  E E E E E E E(E)  |
eb|--------------------|--------------------|--------------------|--------------------|
Bb|--------------------|--------------------|--------------------|--------------------|
Gb|--------5-5---------|--------5-5---------|--------5-5---------|--------5-5---------|
Db|--2---2-5-5-5-5-7---|--2-2-2-5-5-5-5-7---|--2---2-5-5-5-5-7---|--2-2-2-5-5-5-5-----|
Ab|--2---2-3-3-5-5-7---|--2-2-2-3-3-5-5-7---|--2---2-3-3-5-5-7---|--2-2-2-3-3-5-5-----|
Eb|--0---0-----3-3-5---|--0-0-0-----3-3-5---|--0---0-----3-3-5---|--0-0-0-----3-3-----|
  |                    |                    |                    |                    |
  |Gtr 3               |                    |                    |                    |
  | (W)                | (W)                |  E E E E E E E E   |  E E E E E E E(E)  |
eb|--------------------|--------------------|--------------------|--------------------|
Bb|--------------------|--------------------|--------------------|--------------------|
Gb|--------------------|--------------------|--------------------|--------------------|
Db|--------------------|--------------------|--------[Slowly move down the neck ------|
Ab|--------------------|--------------------|-------------- as you pick]--------------|
Eb|--------------------|--------------------|--[12]--------------|-------------[3]----|

     Q   E Q   E S S S S      Q   E Q   E S S S S      Q   E Q   E S S S S      Q   E Q   E E(E)    
eb|------------------------|------------------------|------------------------|--------------------|
Bb|------------------------|------------------------|------------------------|--------------------|
Gb|------------2-2p0-------|------------2-2p0-------|------------2-2p0-------|--------------------|
Db|--2---0-2/5-------5p0---|--2---0-2/5-------5p0---|--2---0-2/5-------5p0---|--2---0-2/5-0-0-----|
Ab|------------------------|------------------------|------------------------|--------------------|
Eb|------------------------|------------------------|------------------------|--------------------|
  |                        |                        |                        |                    |
  |  Q   E E E E E   E     |  E E E E E E E   E     |  Q   E E E E E   E     |  E E E E E E E(E)  |
eb|------------------------|------------------------|------------------------|--------------------|
Bb|------------------------|------------------------|------------------------|--------------------|
Gb|--------5-5-------------|--------5-5-------------|--------5-5-------------|--------5-5---------|
Db|--2---2-5-5-5-5---7-----|--2-2-2-5-5-5-5---7-----|--2---2-5-5-5-5---7-----|--2-2-2-5-5-5-5-----|
Ab|--2---2-3-3-5-5---7-----|--2-2-2-3-3-5-5---7-----|--2---2-3-3-5-5---7-----|--2-2-2-3-3-5-5-----|
Eb|--0---0-----3-3---5-----|--0-0-0-----3-3---5-----|--0---0-----3-3---5-----|--0-0-0-----3-3-----|
  |                        |                        |                        |                    |
  | (W)                    | (W)                    | (W)                    | (W)                |
eb|------------------------|------------------------|------------------------|--------------------|
Bb|------------------------|------------------------|------------------------|--------------------|
Gb|------------------------|------------------------|------------------------|--------------------|
Db|------------------------|------------------------|------------------------|--------------------|
Ab|------------------------|------------------------|------------------------|--------------------|
Eb|------------------------|------------------------|------------------------|--------------------|

     Q   E Q   E S S S S      Q   E Q   E S S S S      Q   E Q   E S S S S      Q   E Q   E S S S S      
eb|------------------------|------------------------|------------------------|------------------------|
Bb|------------------------|------------------------|------------------------|------------------------|
Gb|------------2-2p0-------|------------2-2p0-------|------------2-2p0-------|------------2-2p0-------|
Db|--2---0-2/5-------5p0---|--2---0-2/5-------5p0---|--2---0-2/5-------5p0---|--2---0-2/5-------5p0---|
Ab|------------------------|------------------------|------------------------|------------------------|
Eb|------------------------|------------------------|------------------------|------------------------|
  |                        |                        |                        |                        |
  |  Q   E E E E E   E     |  E E E E E E E   E     |  Q   E E E E E   E     |  E E E E E E E   E     |
eb|------------------------|------------------------|------------------------|------------------------|
Bb|------------------------|------------------------|------------------------|------------------------|
Gb|--------5-5-------------|--------5-5-------------|--------5-5-------------|--------5-5-------------|
Db|--2---2-5-5-5-5---7-----|--2-2-2-5-5-5-5---7-----|--2---2-5-5-5-5---7-----|--2-2-2-5-5-5-5---7-----|
Ab|--2---2-3-3-5-5---7-----|--2-2-2-3-3-5-5---7-----|--2---2-3-3-5-5---7-----|--2-2-2-3-3-5-5---7-----|
Eb|--0---0-----3-3---5-----|--0-0-0-----3-3---5-----|--0---0-----3-3---5-----|--0-0-0-----3-3---5-----|
  |                        |                        |                        |                        |
  |  E E E E E E E   E     |  E E E E E E E   E     |  E E E E E E E   E     |  E E E E E E E   E     |
eb|------------------------|------------------------|------------------------|------------------------|
Bb|------------------------|------------------------|------------------------|------------------------|
Gb|--9---9-9---7-7---9-----|--9---9-9---7-7---9-----|--4---4-4---7-4---7-----|--4---4-4---7-4---7-----|
Db|--x---x-x---x-x---x-----|--x---x-x---x-x---x-----|--x---x-x---x-x---x-----|--x---x-x---x-x---x-----|
Ab|--7---7-7---5-5---7-----|--7---7-7---5-5---7-----|--2---2-2---5-2---5-----|--2---2-2---5-2---5-----|
Eb|------------------------|------------------------|------------------------|------------------------|


[Verse 1]
   Gtr 1
     E (Q.)  (H)         (W)                   Q   E E E E E E      E E E E E E E E 
eb|--------------------|--------------------|--------------------|--------------------|
Bb|--------------------|--------------------|--------------------|--------------------|
Gb|--------------------|--------------------|--------5-5---------|--------5-5---------|
Db|--2-----------------|--------------------|--2---2-5-5-5-5-7---|--2-2-2-5-5-5-5-7---|
Ab|--------------------|--------------------|--2---2-3-3-5-5-7---|--2-2-2-3-3-5-5-7---|
Eb|--------------------|--------------------|--0---0-----3-3-5---|--0-0-0-----3-3-5---|
  |                    |                    |                    |                    |
  |Gtr 2               |                    |                    |                    |
  |  E (Q.)  (H)       | (W)                |  Q   E E E E E E   |  E E E E E E E E   |
eb|--------------------|--------------------|--------------------|--------------------|
Bb|--------------------|--------------------|--------------------|--------------------|
Gb|--------------------|--------------------|--------5-5---------|--------5-5---------|
Db|--2-----------------|--------------------|--2---2-5-5-5-5-7---|--2-2-2-5-5-5-5-7---|
Ab|--2-----------------|--------------------|--2---2-3-3-5-5-7---|--2-2-2-3-3-5-5-7---|
Eb|--0-----------------|--------------------|--0---0-----3-3-5---|--0-0-0-----3-3-5---|

     W                   +W                    Q   E E E E E E      E E E E E E E E 
eb|--------------------|--------------------|--------------------|--------------------|
Bb|--------------------|--------------------|--------------------|--------------------|
Gb|--------------------|--------------------|--------5-5---------|--------5-5---------|
Db|--2-----------------|--------------------|--2---2-5-5-5-5-7---|--2-2-2-5-5-5-5-7---|
Ab|--2-----------------|--------------------|--2---2-3-3-5-5-7---|--2-2-2-3-3-5-5-7---|
Eb|--0-----------------|--------------------|--0---0-----3-3-5---|--0-0-0-----3-3-5---|
  |                    |                    |                    |                    |
  |  W                 | +W                 |  Q   E E E E E E   |  E E E E E E E E   |
eb|--------------------|--------------------|--------------------|--------------------|
Bb|--------------------|--------------------|--------------------|--------------------|
Gb|--------------------|--------------------|--------5-5---------|--------5-5---------|
Db|--2~----------------|--------------------|--2---2-5-5-5-5-7---|--2-2-2-5-5-5-5-7---|
Ab|--------------------|--------------------|--2---2-3-3-5-5-7---|--2-2-2-3-3-5-5-7---|
Eb|--------------------|--------------------|--0---0-----3-3-5---|--0-0-0-----3-3-5---|


[Pre-Chorus 1]
   Gtr 1 & 2
     E E(E)E E E(E)E      E E(E)E E E(E)E      E E(E)E E E(E)E      E E(E)E E E(E)E
eb|--------------------|--------------------|--------------------|--------------------|
Bb|--------------------|--------------------|--------------------|--------------------|
Gb|--------------------|--------------------|--------------------|----------------7---|
Db|--7-7---7-7-7---7---|--7-7---7-7-7-7-5---|--7-7---7-7-7---7---|--7-7---7-7-7-7-7---|
Ab|--7-7---7-7-7---7---|--7-7---7-7-7-7-5---|--7-7---7-7-7---7---|--7-7---7-7-7-7-5---|
Eb|--5-5---5-5-5---5---|--5-5---5-5-5-5-3---|--5-5---5-5-5---5---|--5-5---5-5-5-5-----|

     E E(E)E E E(E)E      E E(E)E E E E E      E E E E E E E E      E (Q.)  (H)
eb|--------------------|--------------------|--------------------|--------------------|
Bb|--------------------|--------------------|--------------------|--------------------|
Gb|--5-5---5-5-5---5---|--5-5---5-5-5-5-x---|--7-7-7-7-7-7-7-7---|--7-----------------|
Db|--5-5---5-5-5---5---|--5-5---5-5-5-5-x---|--7-7-7-7-7-7-7-7---|--7-----------------|
Ab|--3-3---3-3-3---3---|--3-3---3-3-3-3-x---|--5-5-5-5-5-5-5-5---|--5-----------------|
Eb|--------------------|--------------------|--------------------|--------------------|


[Chorus 1]
   Gtr 1
     Q   Q   Q   Q        Q   Q   Q   Q        Q   Q   Q   Q        Q   Q   Q   Q
eb|--------------------|--------------------|--------------------|--------------------|
Bb|--------------------|--------------------|--------------------|--------------------|
Gb|--------------------|--------------------|--7---7---7---7-----|--------------------|
Db|--2---2---2---2-----|--5---5---5---5-----|--7---7---7---7-----|--7---7---7---7-----|
Ab|--2---2---2---2-----|--5---5---5---5-----|--5---5---5---5-----|--7---7---7---7-----|
Eb|--0---0---0---0-----|--3---3---3---3-----|--------------------|--5---5---5---5-----|
  |                    |                    |                    |                    |
  |Gtr 2               |                    |                    |                    |
  |  Q   Q   Q   Q     |  E Q   Q   Q   E   |  Q   Q   Q   Q     |  E Q   Q   Q   E   |
eb|--------------------|--------------------|--------------------|--------------------|
Bb|--------------------|--------------------|--------------------|--------------------|
Gb|--9---9---9---9-----|--9-11--12--14--9---|--9---9---9---9-----|--9-11--12--14--x---|
Db|--x---x---x---x-----|--x-x---x---x---x---|--x---x---x---x-----|--x-x---x---x---x---|
Ab|--7---7---7---7-----|--7-9---10--12--7---|--7---7---7---7-----|--7-9---10--12--x---|
Eb|--------------------|--------------------|--------------------|--------------------|

     Q   Q   Q   Q        Q   Q   Q   Q        Q   Q   Q   Q        E E E E E E E E
eb|--------------------|--------------------|--------------------|--------------------|
Bb|--------------------|--------------------|--------------------|--------------------|
Gb|--------------------|--7---7---7---7-----|--------------------|--5-5-5-5-5-5-5-5---|
Db|--2---2---2---2-----|--7---7---7---7-----|--7---7---7---7-----|--5-5-5-5-5-5-5-5---|
Ab|--2---2---2---2-----|--5---5---5---5-----|--7---7---7---7-----|--3-3-3-3-3-3-3-3---|
Eb|--0---0---0---0-----|--------------------|--5---5---5---5-----|--------------------|
  |                    |                    |                    |                    |
  |  Q   Q   Q   Q     |  Q   Q   Q   Q     |  Q   Q   Q   Q     |  Q   Q   Q   Q     |
eb|--7-----------7-----|----------10--------|--7-----------7-----|----------10--------|
Bb|------8-------------|--8-----------------|------8-------------|--8-----------------|
Gb|----------9---------|------9-------9-----|----------9---------|------9-------9-----|
Db|--------------------|--------------------|--------------------|--------------------|
Ab|--------------------|--------------------|--------------------|--------------------|
Eb|--------------------|--------------------|--------------------|--------------------|

     E E E E E E E E      E E E E E E E E      E E E E E E E E      E E E E E E E E
eb|--------------------|--------------------|--------------------|--------------------|
Bb|--------------------|--------------------|--------------------|--------------------|
Gb|--------------------|--------------------|--7-7-7-7-7-7-7-7---|--------------------|
Db|--2-2-2-2-2-2-2-2---|--5-5-5-5-5-5-5-5---|--7-7-7-7-7-7-7-7---|--7-7-7-7-7-7-7-7---|
Ab|--2-2-2-2-2-2-2-2---|--5-5-5-5-5-5-5-5---|--5-5-5-5-5-5-5-5---|--7-7-7-7-7-7-7-7---|
Eb|--0-0-0-0-0-0-0-0---|--3-3-3-3-3-3-3-3---|--------------------|--5-5-5-5-5-5-5-5---|
  |                    |                    |                    |                    |
  |  E E E E E E E E   |  E Q   Q   Q   E   |  Q   E E E E E E   |  E Q   Q   Q   E   |
eb|--------------------|--------------------|--------------------|--------------------|
Bb|--------------------|--------------------|--------------------|--------------------|
Gb|--9-9-9-9-9-9-9-9---|--9-11--12--14--9---|--9---9-9-9-9-9-9---|--9-11--12--14--x---|
Db|--x-x-x-x-x-x-x-x---|--x-x---x---x---x---|--x---x-x-x-x-x-x---|--x-x---x---x---x---|
Ab|--7-7-7-7-7-7-7-7---|--7-9---10--12--7---|--7---7-7-7-7-7-7---|--7-9---10--12--x---|
Eb|--------------------|--------------------|--------------------|--------------------|

     E E E E E E E E      E E E E E E E E      E E E E E E E E      E E E E E E E E
eb|--------------------|--------------------|--------------------|--------------------|
Bb|--------------------|--------------------|--------------------|--------------------|
Gb|--------------------|--7-7-7-7-7-7-7-7---|--------------------|--5-5-5-5-5-5-5-5---|
Db|--2-2-2-2-2-2-2-2---|--7-7-7-7-7-7-7-7---|--7-7-7-7-7-7-7-7---|--5-5-5-5-5-5-5-5---|
Ab|--2-2-2-2-2-2-2-2---|--5-5-5-5-5-5-5-5---|--7-7-7-7-7-7-7-7---|--3-3-3-3-3-3-3-3---|
Eb|--0-0-0-0-0-0-0-0---|--------------------|--5-5-5-5-5-5-5-5---|--------------------|
  |                    |                    |                    |                    |
  |  Q   Q   Q   Q     |  Q   Q   Q   Q     |  Q   Q   Q   Q     |  Q   Q   Q   Q     |
eb|--7-----------7-----|----------10--------|--7-----------7-----|----------10--------|
Bb|------8-------------|--8-----------------|------8-------------|--8-----------------|
Gb|----------9---------|------9-------9-----|----------9---------|------9-------9-----|
Db|--------------------|--------------------|--------------------|--------------------|
Ab|--------------------|--------------------|--------------------|--------------------|
Eb|--------------------|--------------------|--------------------|--------------------|


[Post-Chorus]
   Gtr 1
     Q   E E E E E E E    E E E E E E E(E)
eb|--------------------|--------------------|
Bb|--------------------|--------------------|
Gb|--------5-5---------|--------5-5---------|
Db|--2---2-5-5-5-5-7---|--2-2-2-5-5-5-5-----|
Ab|--2---2-3-3-5-5-7---|--2-2-2-3-3-5-5-----|
Eb|--0---0-----3-3-5---|--0-0-0-----3-3-----|
  |                    |                    |
  |Gtr 2               |                    |
  |  E (Q.)  (H)       | (H.)         Q     |
eb|--------------------|--------------------|
Bb|--------------------|--------------------|
Gb|--------------------|--------------------|
Db|--2-----------------|--------------------|
Ab|--2-----------------|--------------------|
Eb|--0-----------------|--------------15\---|

     Q   E Q   E S S S S      Q   E Q   E S S S S      Q   E Q   E S S S S      E E E E E E E E    
eb|------------------------|------------------------|------------------------|--------------------|
Bb|------------------------|------------------------|------------------------|--5-3-----------3---|
Gb|------------2-2p0-------|------------2-2p0-------|------------2-2p0-------|------5-4-2---------|
Db|--2---0-2/5-------5p0---|--2---0-2/5-------5p0---|--2---0-2/5-------5p0---|------------5-4-----|
Ab|------------------------|------------------------|------------------------|--------------------|
Eb|------------------------|------------------------|------------------------|--------------------|
  |                        |                        |                        |                    |
  |  Q   E E E E E   E     |  E E E E E E E   E     |  Q   E E E E E   E     |  E E E E E E E E   |
eb|------------------------|------------------------|------------------------|--------------------|
Bb|------------------------|------------------------|------------------------|--------------------|
Gb|--------5-5-------------|--------5-5-------------|--------5-5-------------|--------------------|
Db|--2---2-5-5-5-5---7-----|--2-2-2-5-5-5-5---7-----|--2---2-5-5-5-5---7-----|--------------------|
Ab|--2---2-3-3-5-5---7-----|--2-2-2-3-3-5-5---7-----|--2---2-3-3-5-5---7-----|--3-2-0---------5---|
Eb|--0---0-----3-3---5-----|--0-0-0-----3-3---5-----|--0---0-----3-3---5-----|--------3-2-0-2-----|


[Verse 2]
   Gtr 1
     E (Q.)  (H)         (W)                   Q   E E E E E E      E E E E E E E E 
eb|--------------------|--------------------|--------------------|--------------------|
Bb|--------------------|--------------------|--------------------|--------------------|
Gb|--------------------|--------------------|--------5-5---------|--------5-5---------|
Db|--2-----------------|--------------------|--2---2-5-5-5-5-7---|--2-2-2-5-5-5-5-7---|
Ab|--------------------|--------------------|--2---2-3-3-5-5-7---|--2-2-2-3-3-5-5-7---|
Eb|--------------------|--------------------|--0---0-----3-3-5---|--0-0-0-----3-3-5---|
  |                    |                    |                    |                    |
  |Gtr 2               |                    |                    |                    |
  |  E (Q.)  (H)       | (W)                |  Q   E E E E E E   |  E E E E E E E E   |
eb|--------------------|--------------------|--------------------|--------------------|
Bb|--------------------|--------------------|--------------------|--------------------|
Gb|--------------------|--------------------|--------5-5---------|--------5-5---------|
Db|--2-----------------|--------------------|--2---2-5-5-5-5-7---|--2-2-2-5-5-5-5-7---|
Ab|--2-----------------|--------------------|--2---2-3-3-5-5-7---|--2-2-2-3-3-5-5-7---|
Eb|--0-----------------|--------------------|--0---0-----3-3-5---|--0-0-0-----3-3-5---|

     E E E E E E E E      E E E E E E E E      Q   E E E E E E      E E E E E E E E 
eb|--------------------|--------------------|--------------------|--------------------|
Bb|--------------------|--------------------|--------------------|--------------------|
Gb|--------5-5---------|--------5-5---------|--------5-5---------|--------5-5---------|
Db|--2-2-2-5-5-5-5-7---|--2-2-2-5-5-5-5-7---|--2---2-5-5-5-5-7---|--2-2-2-5-5-5-5-7---|
Ab|--2-2-2-3-3-5-5-7---|--2-2-2-3-3-5-5-7---|--2---2-3-3-5-5-7---|--2-2-2-3-3-5-5-7---|
Eb|--0-0-0-----3-3-5---|--0-0-0-----3-3-5---|--0---0-----3-3-5---|--0-0-0-----3-3-5---|
PM|  . . . . . . . .   |  . . . . . . . .   |                    |                    |
  |                    |                    |                    |                    |
  |  Q   Q   Q   Q     |  E E E E E Q.      |  Q   E E E E E E   |  E E E E E E E E   |
eb|--------------------|--------------------|--------------------|--------------------|
Bb|--------------------|--------------------|--------------------|--------------------|
Gb|--9---9---9---9-----|--9-9-9-9-9-9-------|--------5-5---------|--------5-5---------|[The octaves are played
Db|--x---x---x---x-----|--x-x-x-x-x-x-------|--2---2-5-5-5-5-7---|--2-2-2-5-5-5-5-7---| by switching pickups]
Ab|--7---7---7---7-----|--7-7-7-7-7-7-------|--2---2-3-3-5-5-7---|--2-2-2-3-3-5-5-7---|
Eb|--------------------|--------------------|--0---0-----3-3-5---|--0-0-0-----3-3-5---|


[Pre-Chorus 2]
   Gtr 1
     E E(E)E E   E(E)E      E E(E)E E E(E)E      E E(E)E E   E(E)E      E E(E)E E E E(E)
eb|----------------------|--------------------|----------------------|--------------------|
Bb|----------------------|--------------------|----------------------|--------------------|
Gb|----------------------|--------------------|----------------------|------------4-5-----|
Db|--7-7---7-7---7---7---|--7-7---7-7-7-7-5---|--7-7---7-7---7---7---|--7-7---7-7-4-5-----|
Ab|--7-7---7-7---7---7---|--7-7---7-7-7-7-5---|--7-7---7-7---7---7---|--7-7---7-7-2-3-----|
Eb|--5-5---5-5---5---5---|--5-5---5-5-5-5-3---|--5-5---5-5---5---5---|--5-5---5-5---------|
  |                      |                    |                      |                    |
  |Gtr 2                 |                    |                      |                    |
  |  E E E E S S E E E   |  E E E E E E E E   |  E E E E S S E E E   |  E E E E E E E(E)  |
eb|----------------------|--------------------|----------------------|--------------------|
Bb|----------------------|--------------------|----------------------|--------------------|
Gb|----------------------|--------------------|----------------------|--------------------|
Db|----------------------|----------5---------|----------------------|--------------------|
Ab|--7---5-7-------------|--7---5-7-------5---|--7---5-7-------------|--7---5-7-----------|
Eb|----7-----7b8r7-5-3---|----7-------5-7-----|----7-----7b8r7-5-3---|----7-----5-7-8-----|
PM|  . . . . . . . . .   |  . . . . . . . .   |  . . . . . . . . .   |  . . . . . . .     |


[Chorus 2] Same as Chorus 1
   Gtr 1
     Q   Q   Q   Q        Q   Q   Q   Q        Q   Q   Q   Q        Q   Q   Q   Q
eb|--------------------|--------------------|--------------------|--------------------|
Bb|--------------------|--------------------|--------------------|--------------------|
Gb|--------------------|--------------------|--7---7---7---7-----|--------------------|
Db|--2---2---2---2-----|--5---5---5---5-----|--7---7---7---7-----|--7---7---7---7-----|
Ab|--2---2---2---2-----|--5---5---5---5-----|--5---5---5---5-----|--7---7---7---7-----|
Eb|--0---0---0---0-----|--3---3---3---3-----|--------------------|--5---5---5---5-----|
  |                    |                    |                    |                    |
  |Gtr 2               |                    |                    |                    |
  |  Q   Q   Q   Q     |  E Q   Q   Q   E   |  Q   Q   Q   Q     |  E Q   Q   Q   E   |
eb|--------------------|--------------------|--------------------|--------------------|
Bb|--------------------|--------------------|--------------------|--------------------|
Gb|--9---9---9---9-----|--9-11--12--14--9---|--9---9---9---9-----|--9-11--12--14--x---|
Db|--x---x---x---x-----|--x-x---x---x---x---|--x---x---x---x-----|--x-x---x---x---x---|
Ab|--7---7---7---7-----|--7-9---10--12--7---|--7---7---7---7-----|--7-9---10--12--x---|
Eb|--------------------|--------------------|--------------------|--------------------|

     Q   Q   Q   Q        Q   Q   Q   Q        Q   Q   Q   Q        E E E E E E E E
eb|--------------------|--------------------|--------------------|--------------------|
Bb|--------------------|--------------------|--------------------|--------------------|
Gb|--------------------|--7---7---7---7-----|--------------------|--------------------|
Db|--2---2---2---2-----|--7---7---7---7-----|--7---7---7---7-----|--------------------|
Ab|--2---2---2---2-----|--5---5---5---5-----|--7---7---7---7-----|--3-2-0---------5---|
Eb|--0---0---0---0-----|--------------------|--5---5---5---5-----|--------3-2-0-2-----|
  |                    |                    |                    |                    |
  |  Q   Q   Q   Q     |  Q   Q   Q   Q     |  Q   Q   Q   Q     |  Q   Q   Q   Q     |
eb|--7-----------7-----|----------10--------|--7-----------7-----|----------10--------|
Bb|------8-------------|--8-----------------|------8-------------|--8-----------------|
Gb|----------9---------|------9-------9-----|----------9---------|------9-------9-----|
Db|--------------------|--------------------|--------------------|--------------------|
Ab|--------------------|--------------------|--------------------|--------------------|
Eb|--------------------|--------------------|--------------------|--------------------|

     E E E E E E E E      E E E E E E E E      E E E E E E E E      E E E E E E E E
eb|--------------------|--------------------|--------------------|--------------------|
Bb|--------------------|--------------------|--------------------|--------------------|
Gb|--------------------|--------------------|--7-7-7-7-7-7-7-7---|--------------------|
Db|--2-2-2-2-2-2-2-2---|--5-5-5-5-5-5-5-5---|--7-7-7-7-7-7-7-7---|--7-7-7-7-7-7-7-7---|
Ab|--2-2-2-2-2-2-2-2---|--5-5-5-5-5-5-5-5---|--5-5-5-5-5-5-5-5---|--7-7-7-7-7-7-7-7---|
Eb|--0-0-0-0-0-0-0-0---|--3-3-3-3-3-3-3-3---|--------------------|--5-5-5-5-5-5-5-5---|
  |                    |                    |                    |                    |
  |  E E E E E E E E   |  E Q   Q   Q   E   |  Q   E E E E E E   |  E Q   Q   Q   E   |
eb|--------------------|--------------------|--------------------|--------------------|
Bb|--------------------|--------------------|--------------------|--------------------|
Gb|--9-9-9-9-9-9-9-9---|--9-11--12--14--9---|--9---9-9-9-9-9-9---|--9-11--12--14--x---|
Db|--x-x-x-x-x-x-x-x---|--x-x---x---x---x---|--x---x-x-x-x-x-x---|--x-x---x---x---x---|
Ab|--7-7-7-7-7-7-7-7---|--7-9---10--12--7---|--7---7-7-7-7-7-7---|--7-9---10--12--x---|
Eb|--------------------|--------------------|--------------------|--------------------|

     E E E E E E E E      E E E E E E E E
eb|--------------------|--------------------|
Bb|--------------------|--------------------|
Gb|--------------------|--7-7-7-7-7-7-7-7---|
Db|--2-2-2-2-2-2-2-2---|--7-7-7-7-7-7-7-7---|
Ab|--2-2-2-2-2-2-2-2---|--5-5-5-5-5-5-5-5---|
Eb|--0-0-0-0-0-0-0-0---|--------------------|
  |                    |                    |
  |  Q   Q   Q   Q     |  Q   Q   Q   Q     |
eb|--7-----------7-----|----------10--------|
Bb|------8-------------|--8-----------------|
Gb|----------9---------|------9-------9-----|
Db|--------------------|--------------------|
Ab|--------------------|--------------------|
Eb|--------------------|--------------------|


[Bridge]
   Gtr 1
     E E E E E E E E      E E E E E E Q        E E E E E E E E      E E E E E E Q
eb|--------------------|--------------------|--------------------|--------------------|
Bb|--------------------|--------------------|--------------------|--------------------|
Gb|--------------------|--------------4-----|--5-5-5-5-5-5-5-5---|--5-5-5-5-5\4-4-----|
Db|--7-7-7-7-7-7-7-7---|--7-7-7-7-7-7-4-----|--5-5-5-5-5-5-5-5---|--5-5-5-5-5\4-4-----|
Ab|--7-7-7-7-7-7-7-7---|--7-7-7-7-7-7-2-----|--3-3-3-3-3-3-3-3---|--3-3-3-3-3\2-2-----|
Eb|--5-5-5-5-5-5-5-5---|--5-5-5-5-5-5-------|--------------------|--------------------|
PM|    . . . . . . .   |  . . . . . .       |    . . . . . . .   |  . . . .           |
  |Gtr 2               |                    |                    |                    |
  |  Q   Q   Q   Q     |  Q   Q   Q   Q     |  Q   Q   Q   Q     |  Q   Q   Q   Q     |
eb|--7-----------7-----|----------10--------|--7-----------7-----|----------10--------|
Bb|------8-------------|--8-----------------|------8-------------|--8-----------------|
Gb|----------9---------|------9-------9-----|----------9---------|------9-------9-----|
Db|--------------------|--------------------|--------------------|--------------------|
Ab|--------------------|--------------------|--------------------|--------------------|
Eb|--------------------|--------------------|--------------------|--------------------|
  |                    |                    |                    |                    |
  |Gtr 3               |                    |                    |                    |
  |  W                 |  S E.    Q   E E   |  H.          Q     |  H.          Q     |
eb|--------------------|--------------------|--------------------|--------------------|
Bb|--------------------|--------------------|--------------------|--------------------|
Gb|-/9~----------------|--7\4~--------4/7---|-/9~---------\7-----|--7~----------4-----|
Db|--------------------|--------------------|--------------------|--------------------|
Ab|--------------------|--------------------|--------------------|--------------------|
Eb|--------------------|--------------------|--------------------|--------------------|

     E E E E E E E E      E E E E E E Q        E  E  E  E  E  E  E  E       E  E  E  E  E  E  E  E
eb|--------------------|--------------------|----------------------------|----------------------------|
Bb|--------------------|--------------------|----------------------------|----------------------------|
Gb|--4-4-4-4-4-4-4-4---|--4-4-4-4-4-4-4/7---|--7--7--7--7--7--7--7--7----|--7--7--7--7--7--7--7--7----|
Db|--4-4-4-4-4-4-4-4---|--4-4-4-4-4-4-4/7---|--7--7--7--7--7--7--7--7----|--7--7--7--7--7--7--7--7----|
Ab|--2-2-2-2-2-2-2-2---|--2-2-2-2-2-2-2/5---|--5--5--5--5--5--5--5--5----|--5--5--5--5--5--5--5--5----|
Eb|--------------------|--------------------|----------------------------|----------------------------|
PM|    . . . . . . .   |  . . . . . .       |     .  .  .  .  .  .  .    |  .  .  .  .  .  .  .  .    |
  |                    |                    |                            |                            |
  |  Q   Q   Q   Q     |  Q   Q   Q   Q     |  Q     Q     Q     Q       |  Q     Q     Q     Q       |
eb|--7-----------7-----|----------10--------|--7-----------------7-------|--------------10------------|
Bb|------8-------------|--8-----------------|--------8-------------------|--8-------------------------|
Gb|----------9---------|------9-------9-----|--------------9-------------|--------9-----------9-------|
Db|--------------------|--------------------|----------------------------|----------------------------|
Ab|--------------------|--------------------|----------------------------|----------------------------|
Eb|--------------------|--------------------|----------------------------|----------------------------|
  |                    |                    |                            |                            |
  |  H.          Q     |  Q   Q   Q   Q     |  Q     E  E  E  E  E  E    |  E  E  E  E  E  E  E  E    |
eb|--------------------|--------------------|----------------------------|----------------------------|
Bb|--------------------|--------------------|----------------------------|--------------------10-12---|
Gb|-/9~----------7-----|--7--\4~------4-----|-/11----11h12-11h12-11h12---|--11h12-11h12-11-12---------|
Db|--------------------|--------------------|----------------------------|----------------------------|
Ab|--------------------|--------------------|----------------------------|----------------------------|
Eb|--------------------|--------------------|----------------------------|----------------------------|

   Gtr 1
     Q   Q   E E E E     +E E Q   E E E E      Q   Q   E E  E E     +E E Q   E E E E
eb|--------------------|--------------------|---------------------|--------------------|
Bb|--------------------|--------------------|---------------------|--------------------|
Gb|--5---5---5-5-5-7---|----7-7---7-7-7-7---|-----------------4---|----4-4---4-4-4-4---|
Db|--5---5---5-5-5-7---|----7-7---7-7-7-7---|--2---2---2-2--2-4---|----4-4---4-4-4-4---|
Ab|--3---3---3-3-3-5---|----5-5---5-5-5-5---|--2---2---2-2--2-2---|----2-2---2-2-2-2---|
Eb|--------------------|--------------------|--0---0---0-0--0-----|--------------------|
  |                    |                    |                     |                    |
  |Gtr 2               |                    |                     |                    |
  |  Q   Q   E E E E   | +E E Q   E E E E   |  Q   Q   E E  E E   | +E E Q   E E E E   |
eb|--------------------|--------------------|---------------------|--------------------|
Bb|--------------------|--------------------|---------------------|--------------------|
Gb|--5---5---5-5-5-7---|----7-7---7-7-7-7---|--9---9---9-11-x-8---|----8-8---8-8-8-8---|
Db|--5---5---5-5-5-7---|----7-7---7-7-7-7---|--x---x---x-x--x-x---|----x-x---x-x-x-x---|
Ab|--3---3---3-3-3-5---|----5-5---5-5-5-5---|--7---7---7-9--x-6---|----6-6---6-6-6-6---|
Eb|--------------------|--------------------|---------------------|--------------------|

     Q   Q   E E E E      E E E E E E E E
eb|--------------------|--------------------|
Bb|--------------------|--------------------|
Gb|--5---5---5-5-5-5---|--7-7-7-7-7-7-7-7---|
Db|--5---5---5-5-5-5---|--7-7-7-7-7-7-7-7---|
Ab|--3---3---3-3-3-3---|--5-5-5-5-5-5-5-5---|
Eb|--------------------|--------------------|
  |                    |                    |
  |  Q   Q   E E E E   |  E E E E E E E E   |
eb|--------------------|--------------------|
Bb|--------------------|--------------------|
Gb|--5---5---5-5-5-5---|--7-7-7-7-7-7-7-7---|
Db|--5---5---5-5-5-5---|--7-7-7-7-7-7-7-7---|
Ab|--3---3---3-3-3-3---|--5-5-5-5-5-5-5-5---|
Eb|--------------------|--------------------|


[Chorus Build Up]
   Gtr 1
     W                   +H      +Q.    E      H       +E  E  E  E      +H       +E  E  E  E
eb|--------------------|--------------------|-------------------------|--------------------10---|
Bb|--------------------|--------------------|-------------------------|-------------------------|
Gb|--9-----------------|----------------9\--|--7----------/14\12/14---|--------------11h12------|
Db|--9-----------------|----------------x---|--x-----------x--x--x----|-------------------------|
Ab|--7-----------------|----------------7\--|--5----------/12\10/12---|-------------------------|
Eb|--------------------|--------------------|-------------------------|-------------------------|
  |                    |                    |                         |                         |
  |Gtr 2               |                    |                         |                         |
  |  W                 | +W                 | +H       +Q.       E    |  W                      |
eb|--------------------|--------------------|-------------------------|-------------------------|
Bb|--------------------|--------------------|-------------------------|-------------------------|
Gb|--------------------|--------------------|--------------------7----|-/9----------------------|
Db|--2-----------------|--------------------|--------------------x----|--x----------------------|
Ab|--2-----------------|--------------------|--------------------5----|-/7----------------------|
Eb|--0-----------------|--------------------|-------------------------|-------------------------|

     W                    Q.    Q.    Q        W                   +E E E E E E E E
eb|--------------------|--------------------|--------------------|--------------------|
Bb|--12----------------|--------------15----|--------------------|--------------------|
Gb|--------------------|--12----------------|--14b16-------------|----9-9-9-9-9-9-7---|
Db|--------------------|--------14----------|--------------------|----x-x-x-x-x-x-x---|
Ab|--------------------|--------------------|--------------------|----7-7-7-7-7-7-5---|
Eb|--------------------|--------------------|--------------------|--------------------|
  |                    |                    |                    |                    |
  | +W                 | +W                 | +W                 | +W                 |
eb|--------------------|--------------------|--------------------|--------------------|
Bb|--------------------|--------------------|--------------------|--------------------|
Gb|--------------------|--------------------|--------------------|--------------------|
Db|--------------------|--------------------|--------------------|--------------------|
Ab|--------------------|--------------------|--------------------|--------------------|
Eb|--------------------|--------------------|--------------------|--------------------|

     W                   +W                   +W                   +W
eb|--------------------|--------------------|--------------------|--------------------|
Bb|--------------------|--------------------|--------------------|--------------------|
Gb|--9-----------------|--------------------|--------------------|--------------------|
Db|--x-----------------|--------------------|--------------------|--------------------|
Ab|--7-----------------|--------------------|--------------------|--------------------|
Eb|--------------------|--------------------|--------------------|--------------------|
  |                    |                    |                    |                    |
  | (W)                | (W)                | (W)                | (W)                |
eb|--------------------|--------------------|--------------------|--------------------|
Bb|--------------------|--------------------|--------------------|--------------------|
Gb|--------------------|---------------[Much bass]---------------|--------------------|
Db|--------------------|--------------------|--------------------|--------------------|
Ab|--------------------|--------------------|--------------------|--------------------|
Eb|--------------------|--------------------|--------------------|--------------------|


    (W)                  (W)                  (W)                  (W)
eb|--------------------|--------------------|--------------------|--------------------|
Bb|--------------------|--------------------|--------------------|--------------------|
Gb|--------------------|--------------[Many vocals]--------------|--------------------|
Db|--------------------|--------------------|--------------------|--------------------|
Ab|--------------------|--------------------|--------------------|--------------------|
Eb|--------------------|--------------------|--------------------|--------------------|
  |                    |                    |                    |                    |
  | (W)                | (W)                | (W)                | (H)     (Q.)   E   |
eb|--------------------|--------------------|--------------------|--------------------|
Bb|--------------------|--------------------|--------------------|--------------------|
Gb|--------------------|--------------------|--------------------|----------------7---|
Db|--------------------|--------------------|--------------------|----------------x---|
Ab|--------------------|--------------------|--------------------|----------------5---|
Eb|--------------------|--------------------|--------------------|--------------------|

     E E E E E E E E       E E E E E E E E       E E E E E E E E       E E E E E E E E
eb|---------------------|---------------------|---------------------|--------------------|
Bb|---------------------|---------------------|---------------------|--------------------|
Gb|---------------------|---------------------|--7-7-7-7-7-7-7-7----|--------------------|
Db|--2-2-2-2-2-2-2-2----|--5-5-5-5-5-5-5-5----|--7-7-7-7-7-7-7-7----|--7-7-7-7-7-7-7-7---|
Ab|--2-2-2-2-2-2-2-2----|--5-5-5-5-5-5-5-5----|--5-5-5-5-5-5-5-5----|--7-7-7-7-7-7-7-7---|
Eb|--0-0-0-0-0-0-0-0----|--3-3-3-3-3-3-3-3----|---------------------|--5-5-5-5-5-5-5-5---|
PM|  . . . . . . . .    |  . . . . . . . .    |  . . . . . . . .    |  . . . . . . . .   |
  |                     |                     |                     |                    |
  |  Q.    Q   E E E    | +E E E Q   E E E    | +E E Q   E E E E    | +E E Q   Q   Q     |
eb|--------7-------10---|--------7-------10---|----------7-----10---|----------7---------|
Bb|------------8--------|----8-------8--------|----8---------8------|------8-------------|
Gb|-/9-----------9------|------9-------9------|------9-----9--------|----9---------9-----|
Db|--x------------------|---------------------|---------------------|--------------------|
Ab|-/7------------------|---------------------|---------------------|--------------------|
Eb|---------------------|---------------------|---------------------|--------------------|


     E E E E E E E E      E E E E E E E E      E E E E E E E E      E E E E Q   Q
eb|--------------------|--------------------|--------------------|--------------------|
Bb|--------------------|--------------------|--------------------|--------------------|
Gb|--9-9-9-9-9-9-9-9---|--7-7-7-7-7-7-7-7---|--------------------|--5-5-5-5-5--(5)\---|
Db|--9-9-9-9-9-9-9-9---|--7-7-7-7-7-7-7-7---|--7-7-7-7-7-7-7-7---|--5-5-5-5-5--(5)\---|
Ab|--7-7-7-7-7-7-7-7---|--5-5-5-5-5-5-5-5---|--7-7-7-7-7-7-7-7---|--3-3-3-3-3--(3)\---|
Eb|--------------------|--------------------|--5-5-5-5-5-5-5-5---|--------------------|
PM|  . . . . . . . .   |  . . . . . . . .   |  . . . . . . . .   |  .                 |
  |                    |                    |                    |                    |
  |  Q   E E E E E E   |  Q   E E E E E E   |  E E E E E E E E   |  E E E E E E E E   |
eb|--------------------|--------------------|--------------------|--------------------|
Bb|------7h8-7h8-7h8---|------7h8-7h8-7h8---|--7h8-7h8-7h8-7h8---|--7h8-7h8-7h8p7-----|
Gb|--9-----------------|--9-----------------|--------------------|----------------7---|
Db|--------------------|--------------------|--------------------|--------------------|
Ab|--------------------|--------------------|--------------------|--------------------|
Eb|--------------------|--------------------|--------------------|--------------------|


[Chorus 3]
   Gtr 1
     E E E E E E E E      E E E E E E E E      E E E E E E E E      E E E E E E E E
eb|--------------------|--------------------|--------------------|--------------------|
Bb|--------------------|--------------------|--------------------|--------------------|
Gb|--------------------|--------------------|--7-7-7-7-7-7-7-7---|--------------------|
Db|--2-2-2-2-2-2-2-2---|--5-5-5-5-5-5-5-5---|--7-7-7-7-7-7-7-7---|--7-7-7-7-7-7-7-7---|
Ab|--2-2-2-2-2-2-2-2---|--5-5-5-5-5-5-5-5---|--5-5-5-5-5-5-5-5---|--7-7-7-7-7-7-7-7---|
Eb|--0-0-0-0-0-0-0-0---|--3-3-3-3-3-3-3-3---|--------------------|--5-5-5-5-5-5-5-5---|
  |                    |                    |                    |                    |
  |Gtr 2               |                    |                    |                    |
  |  E E E E E E E E   |  E Q   Q   Q   E   |  Q   E E E E E E   |  E Q   Q   Q   E   |
eb|--------------------|--------------------|--------------------|--------------------|
Bb|--------------------|--------------------|--------------------|--------------------|
Gb|--9-9-9-9-9-9-9-9---|--9-11--12--14--9---|--9---9-9-9-9-9-9---|--9-11--12--14--x---|
Db|--x-x-x-x-x-x-x-x---|--x-x---x---x---x---|--x---x-x-x-x-x-x---|--x-x---x---x---x---|
Ab|--7-7-7-7-7-7-7-7---|--7-9---10--12--7---|--7---7-7-7-7-7-7---|--7-9---10--12--x---|
Eb|--------------------|--------------------|--------------------|--------------------|

     E E E E E E E E      E E E E E E E E      E E E E E E E E      E E E E E E E E
eb|--------------------|--------------------|--------------------|--------------------|
Bb|--------------------|--------------------|--------------------|--------------------|
Gb|--------------------|--7-7-7-7-7-7-7-7---|--------------------|--5-5-5-5-5-5-5-5---|
Db|--2-2-2-2-2-2-2-2---|--7-7-7-7-7-7-7-7---|--7-7-7-7-7-7-7-7---|--5-5-5-5-5-5-5-5---|
Ab|--2-2-2-2-2-2-2-2---|--5-5-5-5-5-5-5-5---|--7-7-7-7-7-7-7-7---|--3-3-3-3-3-3-3-3---|
Eb|--0-0-0-0-0-0-0-0---|--------------------|--5-5-5-5-5-5-5-5---|--------------------|
  |                    |                    |                    |                    |
  |  Q   Q   Q   Q     |  Q   Q   Q   Q     |  Q   Q   Q   Q     |  Q   Q   Q   Q     |
eb|--7-----------7-----|----------10--------|--7-----------7-----|----------10--------|
Bb|------8-------------|--8-----------------|------8-------------|--8-----------------|
Gb|----------9---------|------9-------9-----|----------9---------|------9-------9-----|
Db|--------------------|--------------------|--------------------|--------------------|
Ab|--------------------|--------------------|--------------------|--------------------|
Eb|--------------------|--------------------|--------------------|--------------------|

     E E E E E E E E      E E E E E E E E      E E E E E E E E      E E E E E E E E
eb|--------------------|--------------------|--------------------|--------------------|
Bb|--------------------|--------------------|--------------------|--------------------|
Gb|--------------------|--------------------|--7-7-7-7-7-7-7-7---|--------------------|
Db|--2-2-2-2-2-2-2-2---|--5-5-5-5-5-5-5-5---|--7-7-7-7-7-7-7-7---|--7-7-7-7-7-7-7-7---|
Ab|--2-2-2-2-2-2-2-2---|--5-5-5-5-5-5-5-5---|--5-5-5-5-5-5-5-5---|--7-7-7-7-7-7-7-7---|
Eb|--0-0-0-0-0-0-0-0---|--3-3-3-3-3-3-3-3---|--------------------|--5-5-5-5-5-5-5-5---|
  |                    |                    |                    |                    |
  |Gtr 2               |                    |                    |                    |
  |  E E E E E E E E   |  E Q   Q   Q   E   |  Q   E E E E E E   |  E Q   Q   Q   E   |
eb|--------------------|--------------------|--------------------|--------------------|
Bb|--------------------|--------------------|--------------------|--------------------|
Gb|--9-9-9-9-9-9-9-9---|--9-11--12--14--9---|--9---9-9-9-9-9-9---|--9-11--12--14--x---|
Db|--x-x-x-x-x-x-x-x---|--x-x---x---x---x---|--x---x-x-x-x-x-x---|--x-x---x---x---x---|
Ab|--7-7-7-7-7-7-7-7---|--7-9---10--12--7---|--7---7-7-7-7-7-7---|--7-9---10--12--x---|
Eb|--------------------|--------------------|--------------------|--------------------|

     E E E E E E E E      E E E E E E E E      E E E E E E E E      Q   E Q   E S S S S      Q
eb|--------------------|--------------------|--------------------|------------------------|--------||
Bb|--------------------|--------------------|--------------------|------------------------|--------||
Gb|--------------------|--7---7---7---7-----|--------------------|------------2-2p0-------|--------||
Db|--2---2---2---2-----|--7---7---7---7-----|--7---7---7---7-----|--2---0-2/5-------5p0---|--2\----||
Ab|--2---2---2---2-----|--5---5---5---5-----|--7---7---7---7-----|------------------------|--------||
Eb|--0---0---0---0-----|--------------------|--5---5---5---5-----|------------------------|--------||
  |                    |                    |                    |                        |        ||
  |  Q   Q   Q   Q     |  Q   Q   Q   Q     |  Q   Q   Q   Q     |  E (Q.)  (H)           |  Q     ||
eb|--7-----------7-----|----------10--------|--7-----------7-----|------------------------|--------||
Bb|------8-------------|--8-----------------|------8-------------|------------------------|--------||
Gb|----------9---------|------9-------9-----|----------9---------|--5---------------------|--------||
Db|--------------------|--------------------|--------------------|--5---------------------|--2-----||
Ab|--------------------|--------------------|--------------------|--3---------------------|--2-----||
Eb|--------------------|--------------------|--------------------|------------------------|--0-----||


************************************

|  ~   Vibrato
| (n)  Ghost note
|  \   Slide down
|  x   Dead note
|  PM  Palm mute
|  /   Slide up
| [n]  Natural/artificial harmonic
|  b   Bend
|  r   Release bend
|  S   Sixteenth note
|  E   Eighth note
|  Q   Quarter note
|  H   Half note
|  W   Whole note
|  .   Dotted note
| (N)  Rest
|  +   Add note value
|o o|  Reprise

************************************


            
            
Suggest correction
Creating personal tab
Creating personal tab
You can edit any tab online and save it as your Personal.

You can edit, replace or remove any tab part or add personal notes – all changes will be seen only by you.

Personal tabs can be accessed anytime from any device, even offline.
Learn more »
Give kudos to tab author, rate the tab!
1 2 3 4 5
comments
print report bad tab
guest
You may want to rate the tab now too:
select rating
Wanna post a correction for this tab? Suggest correction