Oops, an error
Loading. Please wait.

Roadside chords

version 7
version 7
453 views 1 this week
no commentswrite comment
1 2 3 4 5
2 more votes to show rating
add to favorites
×
Save as Personal and add changes to this tab that will be seen only by you. Learn more ›
×
You can save this tab as Personal to edit and correct it or add notes. All changes will be seen only by you. Learn more »
launch autoscroll
font size
0
reset
transpose
0
reset
simplify chords
display chords
guitar tuner
edit
Autoscroll
slow
fast
+/-
esc
set tempo
stop
Author
Difficulty
intermediate
Strumming
There is no strumming pattern for this song yet. and get +5 IQ
Rise Against
Roadside
The Sufferer and the Witness
Tab by Nicholas P

Intro:
  C#m               B                A                B                x2
e|----------------|----------------|----------------|----------------|
B|--4---2---------|--4---2---------|--2---0---------|----------------|
G|----------------|----------------|----------------|--1-------------|
D|----------------|----------------|----------2---4-|----------------|
A|4---4-----------|2---2-----------|0---0---0---0---|2---------------|
E|----------------|----------------|----------------|----------------|

Verse: Faster
C#m               B
Tell me what I'm supposed to do
     A                 B
With all these left over feelings of you
  C#m               B                A                B
                      Cause I don't know
e|--4-----4-------|------7---------|--------0-------|--------4-------|
B|------5---5s7---|--4-------------|----2-----------|--4-------4---4-|
G|----------------|----4-----4p2---|--2---2---2-----|----4-------4---|
D|----------------|----------------|------------2---|------4---------|
A|4---4---------2-|2---------------|2-------------0h|2---------------|
E|----------------|----------------|----------------|----------------|

C#m              B
Tell me how I'm supposed to feel
     A                 B
When all these nightmares become real
  C#m               B                A                B
                      Cause I don't know
e|--4-----4-------|------7---------|--------0-------|--------4-------|
B|------5---5s7---|--4-------------|----2-----------|--4-------4---4-|
G|----------------|----4-----4p2---|--2---2---2-----|----4-------4---|
D|----------------|----------------|------------2---|------4---------|
A|4---4---------2-|2---------------|2-------------0h|2---------------|
E|----------------|----------------|----------------|----------------|

Pre-Chorus
      A           B           C#m           C#sus2  C#m
And I don't think you see the places inside me that I find you
      A          B      C#m          C#sus2    C#m
And I don't know how we separate the lies here from the truth
      A          B      C#m             C#sus2  C#m
And I don't know how we woke up one day,somehow thought we knew
A      B                C#m         C#sus2  C#m
     Exactly what we're supposed to do

Chorus:
   C#m
So leave me at the roadside
And hang me up and out to dry
So leave me at the roadside
And hang me up and out to dry
Lead Part:
e|--------4-2-0---|----------------|--------4-2-0-2-|---2-2-2-2-2-2-2-|
B|--------------4-|----------------|----------------|---2-2-2-2-2-2-2-|
G|----------------|----------------|----------------|-----------------|
D|----------------|----------------|----------------|-----------------|
A|----------------|----------------|----------------|-----------------|
E|----------------|----------------|----------------|-----------------|

Pre-Chorus
      A           B           C#m           C#sus2  C#m
And I don't think you see the places inside me that I find you
      A          B      C#m              C#sus2  C#m
And I don't know how we woke up one day, somehow thought we knew
A      B                C#m         C#sus2  C#m
     Exactly what we're supposed to do

String Solo:
  C#m               B                A                B                x2
e|----------------|----------------|----------------|----------------|
B|--4---2---------|--4---2---------|--2---0---------|----------------|
G|----------------|----------------|----------------|--1-------------|
D|----------------|----------------|----------2---4-|----------------|
A|4---4-----------|2---2-----------|0---0---0---0---|2---------------|
E|----------------|----------------|----------------|----------------|
 
  C#m (Four bars)

Chorus: (Lead part first 2 lines)
   C#m
So leave me at the roadside
And hang me up and out to dry
   A     B         C#m
So leave me at the roadside
    A    B         C#m
And hang me up and out to dry

Outro:
         A           B           C#m
'Cause I don't think you see the places inside me that I find you
      A          B      C#m
And I don't know how we woke up one day, somehow thought we knew
A      B                C#m         
     Exactly what we're supposed to do
A      B             C#m      
     Exactly what to do

            
            
Suggest correction
Creating personal tab
Creating personal tab
You can edit any tab online and save it as your Personal.

You can edit, replace or remove any tab part or add personal notes – all changes will be seen only by you.

Personal tabs can be accessed anytime from any device, even offline.
Learn more »
Give kudos to tab author, rate the tab!
1 2 3 4 5
comments
print report bad tab
guest
You may want to rate the tab now too:
select rating
Wanna post a correction for this tab? Suggest correction