Oops, an error
Loading. Please wait.
We have an official Survive tab made by UG professional guitarists. Check out the tab »
×
14,106 views 1 this week
2 commentsread comments
1 2 3 4 5
x 8
add to favorites
×
Save as Personal and add changes to this tab that will be seen only by you. Learn more ›
×
You can save this tab as Personal to edit and correct it or add notes. All changes will be seen only by you. Learn more »
launch autoscroll
font size
0
reset
guitar tuner
edit
Autoscroll
slow
fast
+/-
esc
set tempo
stop
Author
Band: Rise against
Album: The Sufferer And The Witness
Song: Survive

Please Rate

Intro

G|------------------------------------------------------------------|
D|------------------------------------------------------------------| 
A|---------------------------------1--1-111----------------1--1-111-|
E|-----------------------------------------1--1-1114--4-444---------|

Verse (0:08)

G|------------------------------------------------------------------|
D|------------------------------------------------------------------| 
A|-3--3-3333--3-333----------------1--1-111----------------1--1-111-|
E|-----------------4--4-4444--4-444--------1--1-1114--4-444---------|

G|------------------------------------------------------------------|
D|------------------------------------------------------------------| 
A|-3--3-3333--3-333----------------1--1-111-------------------------|
E|-----------------4--4-4444--4-444--------1--1-1114--4-4446-6--446-|

Chorus (0:27)

G|------------------------------------------------------------------|
D|------------------------------------------------------------------| 
A|-3-----------666--------------------------------------------------| x2
E|----------------6-----------3334-----------3336---------------333-|

Post –Chorus

G|------------------------------------------------------------------|
D|------------------------------------------------------------------| 
A|------------------------------------------------------------------|
E|-4-----------3334-------6---3334-----------3334----------6---3----|

Verse (0:55)

G|------------------------------------------------------------------|
D|------------------------------------------------------------------| 
A|-3--3-3333--3-333----------------1--1-111----------------1--1-111-|
E|-----------------4--4-4444--4-444--------1--1-1114--4-444---------|

G|------------------------------------------------------------------|
D|------------------------------------------------------------------| 
A|-3--3-3333--3-333----------------1--1-111-------------------------|
E|-----------------4--4-4444--4-444--------1--1-1114--4-4446.-------|

Pause

Chorus (1:18)

G|------------------------------------------------------------------|
D|------------------------------------------------------------------| 
A|-3-3333333333666--------------------------------------------------| x2
E|----------------6-66666666663334-44444444443336-66666666666666333-|

Post – Chorus (1:36)

G|------------------------------------------------------------------|
D|------------------------------------------------------------------| 
A|------------------------------------------------------------------|
E|-4-----------3334-------6---3334-----------3334----------6---3----|


Bridge (1:46)

G|----------------------------------|
D|----------------------------------| 
A|--33------------133-------------1-|
E|----------------------------------|

G|----------------------------------|
D|----------------------------------| 
A|-33-------------133-------------1-|
E|----------------------------------|

G|----------------------------------|
D|----------------------------------| 
A|-33-------------133-------------1-|
E|----------------------------------|

G|----------------------------------|
D|----------------------------------| 
A|-33-------------133-------------1-|
E|----------------------------------|

G|----------------------------------|
D|----------------------------------| 
A|-33-------------1-----------------|
E|-----------------44-----466-------|


Bridge 2 (2:20)

G|------------------------------------------------------------------|
D|------------------------------------------------------------------| 
A|-3-3-3-3-3-3-3-3---------------------------------------------1----| x3
E|-----------------4-4-4-4-4-4-4-4-6-6-6-6-6-6-6-6-1-1-1-1-1-3---3--|

G|-------------------------------------------------------|
D|-------------------------------------------------------| 
A|-3-3-3-3-3-3-3-3---------------------------------------|
E|-----------------4-4-4-4-4-4-4-4-6-6-6-6-6-6-6-6-6-446-|

Chorus (2:47)

G|------------------------------------------------------------------|
D|------------------------------------------------------------------| 
A|-3-3333333333666--------------------------------------------------| x2
E|----------------6-66666666663334-44444444443336-66666666666666333-|


Final Chorus (3:06) (not sure how right this part is)


G|-------------------------------------------------------8~--7-5----|
D|---553-5-665533---558-5-6655--------------------------------------| 
A|-3-------------6------------886-----------------------------------|
E|----------------6--------------4-44444444443336-666666------------|

G|------------------------------------------------------------------|
D|---553-5-665533---558-5-6655--------------------------------------| 
A|-3-------------6------------886------------------------------3~---|
E|----------------6--------------4-44444444443336-6666666666446-----|

            
            
Suggest correction
Creating personal tab
Creating personal tab
You can edit any tab online and save it as your Personal.

You can edit, replace or remove any tab part or add personal notes – all changes will be seen only by you.

Personal tabs can be accessed anytime from any device, even offline.
Learn more »
comments
print report bad tab
2 comments total.
0 reply
12centRansom 52 Jul 17, 2008 01:47 PM

Ya this is pretty much perfect except for the last part which sounds really close. thanks a lot though. I was having to play the bass from the guitar tabs. This was really good.

0 reply
chromaticvision 4,067 Aug 03, 2008 01:37 AM

Last chorus is

Gb|----------------------------------------------------------------|
Db|----6-446-776-------6-99776644----------------------------------|
Ab|-4-4----------7772-2-------------------------777----------------|
Eb|------------------------------2225-5555555555---7-77777777777444|

Gb|----------------------------------------------------------------|
Db|----6-446-776-------6-99776644----------------------------------|
Ab|-4-4----------7772-2--------------------------------------------|
Eb|------------------------------2225-55555555550007-77777777777444|

Gb|---|
Db|---|
Ab|-4-|
Eb|---|

guest
You may want to rate the tab now too:
select rating
Wanna post a correction for this tab? Suggest correction