Oops, an error
Loading. Please wait.
We have an official Swing Life Away tab made by UG professional guitarists. Check out the tab »
×
8,829 views 1 this week
1 commentread comment
1 2 3 4 5
x 3
add to favorites
×
Save as Personal and add changes to this tab that will be seen only by you. Learn more ›
×
You can save this tab as Personal to edit and correct it or add notes. All changes will be seen only by you. Learn more »
launch autoscroll
font size
0
reset
guitar tuner
edit
Autoscroll
slow
fast
+/-
esc
set tempo
stop
Tabbed by Punk P-Bassist

There is no bass in the studio version, but I made this for it.
I combined the kick drum rhythm and guitar chord progression.
It's as 100% as you can get.
Enter at the first chorus.

CHORUS
G|----------------|
D|----------------|
A|----3-------0---| x3
E|0-------3-------|

G|----------------|
D|------------0---|
A|----3---0-------|
E|0---------------|
BREAK TWO BEATS

VERSE x2
G|----------------|
D|--------0-------|
A|------------3---|
E|0---0-----------|

G|----------------|
D|----------------|
A|------------3---|
E|0---0---3-------|

G|----------------|
D|------------0---|
A|--------3-------|
E|0---3-----------|
BREAK FOUR BEATS

CHORUS
G|----------------|
D|----------------|
A|----3-------0---| x3
E|0-------3-------|

G|----------------|
D|------------0---|
A|----3---0-------|
E|0---------------|
BREAK TWO BEATS

G|----------------|
D|--------0-------|
A|3---------------|
E|----------------|

SOLO x4
G|----------------|
D|----------------|
A|----------------|
E|3---3---3---3---|

BREAK

CHORUS
G|----------------|
D|----------------|
A|----3-------0---| x3
E|0-------3-------|

G|----------------|
D|------------0---|
A|----3---0-------|
E|0---------------|
BREAK TWO BEATS

OUTRO
G|----------------|
D|----------------|
A|--------3---3---| x2
E|0---3-----------|

G|----------------|
D|----------------|
A|--------0---3---|
E|0---3-----------|

G|----------------|
D|----------------|
A|--------3---3---|
E|0---3-----------|

            
            
Suggest correction
Creating personal tab
Creating personal tab
You can edit any tab online and save it as your Personal.

You can edit, replace or remove any tab part or add personal notes – all changes will be seen only by you.

Personal tabs can be accessed anytime from any device, even offline.
Learn more »
Give kudos to tab author, rate the tab!
1 2 3 4 5
comments
print report bad tab
1 comment total.
0 reply
HarrisonB 10 Sep 09, 2009 08:35 PM

Ok well this is a pretty good recreation but it should be since I helped
Good job Aubs

guest
You may want to rate the tab now too:
select rating
Wanna post a correction for this tab? Suggest correction