Oops, an error
Loading. Please wait.
We have an official Swing Life Away tab made by UG professional guitarists. Check out the tab »
×
24,033 views 1 this week
2 commentsread comments
1 2 3 4 5
x 4
add to favorites
×
Save as Personal and add changes to this tab that will be seen only by you. Learn more ›
×
You can save this tab as Personal to edit and correct it or add notes. All changes will be seen only by you. Learn more »
guitar tuner
edit
Autoscroll
slow
fast
+/-
esc
set tempo
stop
For text version of this tab please click here
Suggest correction
Creating personal tab
Creating personal tab
You can edit any tab online and save it as your Personal.

You can edit, replace or remove any tab part or add personal notes – all changes will be seen only by you.

Personal tabs can be accessed anytime from any device, even offline.
Learn more »
comments
report bad tab
2 comments total.
0 reply
ssjEasterBunny 251 Dec 25, 2012 07:48 PM

INTRO: Correct.

VERSE: Correct chords but incorrect strumming. True, there has always been some controversy around this song's strumming, but that relates to palm muting. This guy didn't even attempt any muting and his strumming is no more accurate than being in the correct time signature.

CHORUS: Wrong chord construction entirely, except for the D5. Just check any of the more recent tabs or music videos. However, I do give him props for getting the correct chord progression. Most people don't realize that it goes up to D5 on the second bar, rather than down to Asus4 like it does during the first bar.

One star for getting the correct intro, and one more for the correct progression in the chorus. No additional stars for showing us how to play power chords.

0 reply
ssjEasterBunny 251 Dec 25, 2012 07:56 PM

Correct chorus:

E|-------------------------|-------------------------|
B|-----8-7-8-8-----7-7-7-7-|-3---3-3-3-3-3---3-3-3-3-|
G|-----0-0-0-0-0---0-0-0-0-|-0---0-0-0-0-2---2-2-2-2-|
D|-X---X-X-X-X-0---0-0-0-0-|-0---0-0-0-0-2---2-2-2-2-|
A|-7---7-7-7-7-X---X-X-X-X-|-X---X-X-X-X-0---0-0-0-0-|
E|-0---0-0-0-0-8---8-8-8-8-|-3---3-3-3-3-------------|

E|-------------------------|-------------------------|
B|-----8-7-8-8-----7-7-7-7-|-3---3-3-3-3-3---3-3-3-3-|
G|-----0-0-0-0-0---0-0-0-0-|-2---2-2-2-2-2---2-2-2-2-|
D|-X---X-X-X-X-0---0-0-0-0-|-0---0-0-0-0-0---0-0-0-0-|
A|-7---7-7-7-7-X---X-X-X-X-|-------------------------|
E|-0---0-0-0-0-8---8-8-8-8-|-------------------------|

guest
You may want to rate the tab now too:
select rating