Oops, an error
Loading. Please wait.
We have an official The First Drop tab made by UG professional guitarists. Check out the tab »
×
1,196 views 6 this week
no commentswrite comment
1 2 3 4 5
1 last vote to show rating
add to favorites
×
Save as Personal and add changes to this tab that will be seen only by you. Learn more ›
×
You can save this tab as Personal to edit and correct it or add notes. All changes will be seen only by you. Learn more »
launch autoscroll
font size
0
reset
guitar tuner
edit
Autoscroll
slow
fast
+/-
esc
set tempo
stop
Rise Against - The First Drop
99% correct Bass Tab
Tuning - Half-Step Down (Eb Ab Db Gb)


INTRO
Gb|----------------------------------|
Db|----------------------------------|
Ab|---------3-3333-------------------| x4
Eb|-5-5555----------3-3333--1-1111---|

VERSE
Gb|-----------------------------------------------------------------------|
Db|------------------------------------------------------33-3333----------|
Ab|---------------------------33-3333----------------------------33-33333-|x3
Eb|-55-5555--33-3333--55-5555----------55-5555--33-3333-------------------|

Gb|------------------------------------------------------------------------|
Db|------------------------------------------------------------------------|
Ab|----------------------------33-3333-------------------------------------|
Eb|-55-5555--33-3333--55-5555-----------55-5555--33-3333--1-111111-3-33333-|

CHORUS (same as Intro)
Gb|----------------------------------|
Db|----------------------------------|
Ab|---------3-3333-------------------| x4
Eb|-5-5555----------3-3333--1-1111---|

(VERSE x1)
(CHORUS x1)

Gb|--------------------------------|
Db|--------------------------------|
Ab|-----------------------------0--|
Eb|-0-0000-0-0000-0-0000-0-0000----|

INTERLUDE
Gb|----------------------|  |-----------------------------------------|
Db|----------------------|  |-----------------------------------------|
Ab|----223355-------3333-|x1|-0000000--------3333--0000000------------|x1.5
Eb|-00---------1111------|  |----------1111-----------------1111-3333-|
(Repeat Interlude)

End Interlude with
Ab|--5------5!--|

(CHORUS x1)

End with
Gb|-------------------------------------|
Db|-------------------------------------|
Ab|-------------------------------------|
Eb|-3-3333-3-3333-1-1111-1-1111--3-5!---|

THE END

Tabbed by Jesse Furey :D

            
            
Suggest correction
Creating personal tab
Creating personal tab
You can edit any tab online and save it as your Personal.

You can edit, replace or remove any tab part or add personal notes – all changes will be seen only by you.

Personal tabs can be accessed anytime from any device, even offline.
Learn more »
Give kudos to tab author, rate the tab!
1 2 3 4 5
comments
print report bad tab
guest
Wanna post a correction for this tab? Suggest correction