Oops, an error
Loading. Please wait.
We have an official The Strength To Go On tab made by UG professional guitarists. Check out the tab »
×
4,509 views 1 this week
2 commentsread comments
1 2 3 4 5
x 6
add to favorites
×
Save as Personal and add changes to this tab that will be seen only by you. Learn more ›
×
You can save this tab as Personal to edit and correct it or add notes. All changes will be seen only by you. Learn more »
launch autoscroll
font size
0
reset
guitar tuner
edit
Autoscroll
slow
fast
+/-
esc
set tempo
stop
The Strength to Go On
Rise Against
Joe Principe - Bass

INTRO – Four bars of nothing

VERSE

Gb|-------------|-------------|-------------|-------------|
Db|-------------|-------------|-------------|-------------|
Ab|-55-5-58-7-5-|-11-1-13-333-|-55-5-58-7-5-|-11-1-13-----|
Eb|-------------|-------------|-------------|-------------|
    1 2 3 4 5 6   1 2 3 4 5 6   1 2 3 4 5 6   1 2 3 4 5 6

Gb|-------------|-------------|-------------|-------------|
Db|-------------|-------------|-------------|-------------|
Ab|-55-5-58-7-5-|-11-1-13-333-|-------------|-------------|
Eb|-------------|-------------|-11-1-11-1-1-|-33-3-33-3-3-|
    1 2 3 4 5 6   1 2 3 4 5 6   1 2 3 4 5 6   1 2 3 4 5 6

Gb|-------------|-------------|-------------|-------------|
Db|-------------|-------------|-------------|-------------|
Ab|-55-5-58-7-5-|-11-1-13-3-3-|-55-5-58-7-5-|-11-1-13-----|
Eb|-------------|-------------|-------------|-------------|
    1 2 3 4 5 6   1 2 3 4 5 6   1 2 3 4 5 6   1 2 3 4 5 6


Gb|-------------|-------------|-------------|-------------|
Db|-------------|-------------|-------------|-------------|
Ab|-55-5-58-7-5-|-11-1-13-333-|-------------|-------------|
Eb|-------------|-------------|-11-1-11-1-1-|-33-3-33-3-3-|
    1 2 3 4 5 6   1 2 3 4 5 6   1 2 3 4 5 6   1 2 3 4 5 6

PRE-CHORUS

Gb|------------------|------------------|------------------|------------------|
Db|------------------|------------------|------------------|------------------|
Ab|-1----------------|-3----------------|-5-5--55-5-5--55--|------------------|
Eb|------------------|------------------|------------------|-1-1--11-1-1--11--|
    1 + 2 + 3 + 4 +    1 + 2 + 3 + 4 +    1 + 2 + 3 + 4 +    1 + 2 + 3 + 4 +

Gb|------------------|-----------5------|
Db|------------------|------------------|
Ab|-1-1--11-1-1--11--|-333333333--------|
Eb|------------------|------------------|
    1 + 2 + 3 + 4 +    1 + 2 + 3 + 4 +   

CHORUS

Gb|------------------|------------------|------------------|------------------|
Db|------------------|------------------|------------------|------------------|
Ab|-5-5-5-5----------|-1-1-1-1-1-1-1-1--|-5-5-5-5----------|-1-1-1-1-1-1-1-1--|
Eb|---------1-1-1-1--|------------------|---------1-1-1-1--|------------------|
    1 + 2 + 3 + 4 +    1 + 2 + 3 + 4 +    1 + 2 + 3 + 4 +    1 + 2 + 3 + 4 +

Gb|------------------|------------------|------------------|------------------|
Db|------------------|------------------|------------------|------------------|
Ab|-5-5-5-5----------|-1-1-1-1-1-1-1-1--|-3-3-3-3-3-3-3-1--|---1-1-1-1-1-1-1--|
Eb|---------1-1-1-1--|------------------|------------------|------------------|
    1 + 2 + 3 + 4 +    1 + 2 + 3 + 4 +    1 + 2 + 3 + 4 +    1 + 2 + 3 + 4 +

Gb|------------------|------------------|
Db|------------------|------------------|
Ab|-3-3-3-3-3-3-3-1--|------------------|
Eb|------------------|------------------ |
    1 + 2 + 3 + 4 +    1 + 2 + 3 + 4 + 

INTERLUDE

Gb|-77-7-77-7-7-|-77-7-77-7-7-|-77-7-77-7-7-|-77-7-77-----|
Db|-------------|-------------|-------------|-------------|
Ab|-------------|-------------|-------------|-------------|
Eb|-------------|-------------|-------------|-------------|
    1 2 3 4 5 6   1 2 3 4 5 6   1 2 3 4 5 6   1 2 3 4 5 6

VERSE

Gb|-------------|-------------|-------------|-------------|
Db|-------------|-------------|-------------|-------------|
Ab|-55-5-58-7-5-|-11-1-13-3-3-|-55-5-58-7-5-|-11-1-13-----|
Eb|-------------|-------------|-------------|-------------|
    1 2 3 4 5 6   1 2 3 4 5 6   1 2 3 4 5 6   1 2 3 4 5 6

Gb|-------------|-------------|-------------|-------------|
Db|-------------|-------------|-------------|-------------|
Ab|-55-5-58-7-5-|-11-1-13-333-|-------------|-------------|
Eb|-------------|-------------|-11-1-11-0-1-|-33-3-33-3-3-|
    1 2 3 4 5 6   1 2 3 4 5 6   1 2 3 4 5 6   1 2 3 4 5 6

Gb|-------------|-------------|-------------|-------------|
Db|-------------|-------------|-------------|-------------|
Ab|-55-5-58-7-5-|-11-1-13-3-3-|-55-5-58-7-5-|-11-1-13-----|
Eb|-------------|-------------|-------------|-------------|
    1 2 3 4 5 6   1 2 3 4 5 6   1 2 3 4 5 6   1 2 3 4 5 6


Gb|-------------|-------------|-------------|-------------|
Db|-------------|-------------|-------------|-------------|
Ab|-55-5-58-7-5-|-11-1-13-3-3-|-------------|-------------|
Eb|-------------|-------------|-11-1-11-0-1-|-33-3-3------|
    1 2 3 4 5 6   1 2 3 4 5 6   1 2 3 4 5 6   1 2 3 4 5 6

PRE-CHORUS

Gb|------------------|------------------|------------------|------------------|
Db|------------------|------------------|------------------|------------------|
Ab|-1----------------|-3----------------|-5-5--55-5-5--55--|------------------|
Eb|------------------|------------------|------------------|-1-1--11-1-1--11--|
    1 + 2 + 3 + 4 +    1 + 2 + 3 + 4 +    1 + 2 + 3 + 4 +    1 + 2 + 3 + 4 +

Gb|------------------|------------------|
Db|------------------|------------------|
Ab|-1-1--11-1-1--11--|-333333333-3\\\\\-|
Eb|------------------|------------------|
    1 + 2 + 3 + 4 +    1 + 2 + 3 + 4 +   

CHORUS

Gb|------------------|------------------|------------------|------------------|
Db|------------------|------------------|------------------|------------------|
Ab|-5-5-5-5----------|-1-1-1-1-1-1-1-1--|-5-5-5-5----------|-1-1-1-1-1-1-1-1--|
Eb|---------1-1-1-1--|------------------|---------1-1-1-1--|------------------|
    1 + 2 + 3 + 4 +    1 + 2 + 3 + 4 +    1 + 2 + 3 + 4 +    1 + 2 + 3 + 4 +

Gb|------------------|------------------|------------------|------------------|
Db|------------------|------------------|------------------|------------------|
Ab|-5-5-5-5----------|-1-1-1-1-1-1-1-1--|-3-3-3-3-3-3-3-1--|---1-1-1-1-1-1-1--|
Eb|---------1-1-1-1--|------------------|------------------|------------------|
    1 + 2 + 3 + 4 +    1 + 2 + 3 + 4 +    1 + 2 + 3 + 4 +    1 + 2 + 3 + 4 +

Gb|------------------|------------------|
Db|------------------|-----------0-2-3--|
Ab|-3-3-3-3-3-3-3-1--|---1-1-1-1--------|
Eb|------------------|------------------|
    1 + 2 + 3 + 4 +    1 + 2 + 3 + 4 +

BRIDGE

Gb|------------------|------------------|------------------|------------------|
Db|------------------|------------------|------------------|------------------|
Ab|-3-3--------------|-5-5--------------|-1-1--11-1-1--11--|-1-1--11-1-111111-|
Eb|------------------|------------------|------------------|------------------|
    1 + 2 + 3 + 4 +    1 + 2 + 3 + 4 +    1 + 2 + 3 + 4 +    1 + 2 + 3 + 4 +

Gb|------------------|------------------|---------------02-|-3---222-000------|
Db|------------------|------------------|------------------|-------------333--|
Ab|-3-3--------------|-5-5--------------|-1-1--11-1-1--1---|------------------|
Eb|------------------|------------------|------------------|------------------|
    1 + 2 + 3 + 4 +    1 + 2 + 3 + 4 +    1 + 2 + 3 + 4 +    1 + 2 + 3 + 4 +

Gb|------------------|------------------|------------------|------------------|
Db|------------------|------------------|------------------|------------------|
Ab|-3-3--33-3-3--33--|-5-5--55-5-5--55--|-1-1--11-1-1--11--|-1-1--11-1-1--11--|
Eb|------------------|------------------|------------------|------------------|
    1 + 2 + 3 + 4 +    1 + 2 + 3 + 4 +    1 + 2 + 3 + 4 +    1 + 2 + 3 + 4 +

Gb|------------------|------------------|------------------|------------------|
Db|------------------|---------2---3----|------------------|------------------|
Ab|-3-3--33-3-3--33--|-5-5--55----------|-1-1-1-1-1-1-1-1--|-1-1-1-1-1-1-1-1--|
Eb|------------------|------------------|------------------|------------------|
    1 + 2 + 3 + 4 +    1 + 2 + 3 + 4 +    1 + 2 + 3 + 4 +    1 + 2 + 3 + 4 +

Gb|------------------|------------------|------------------|------------------|
Db|------------------|------------------|------------------|------------------|
Ab|-3-3-3-3-3-3-3-3--|-3-3-3-3-3-3-3-3--|-1-1-1-1-1-1-1-1//|/5-5-5-5-5-5-5-5--|
Eb|------------------|------------------|------------------|------------------|
    1 + 2 + 3 + 4 +    1 + 2 + 3 + 4 +    1 + 2 + 3 + 4 +    1 + 2 + 3 + 4 +

Gb|------------------|------------------|
Db|------------------|------------------|
Ab|-3----------------|------------------|
Eb|------------------|------------------|
    1 + 2 + 3 + 4 +    1 + 2 + 3 + 4 +   

CHORUS

Gb|------------------|------------------|------------------|------------------|
Db|---------3--------|------------------|---------3--------|------------------|
Ab|-5----------------|-1----------------|-5----------------|-1----------------|
Eb|------------------|------------------|------------------|------------------|
    1 + 2 + 3 + 4 +    1 + 2 + 3 + 4 +    1 + 2 + 3 + 4 +    1 + 2 + 3 + 4 +

Gb|-------------10---|------------------|------------------|------------------|
Db|---7-------10-----|/8-----7----------|------------------|------------------|
Ab|-5---5-8----------|-------------8\\\\|-3-------------1--|------------------|
Eb|------------------|------------------|------------------|------------------|
    1 + 2 + 3 + 4 +    1 + 2 + 3 + 4 +    1 + 2 + 3 + 4 +    1 + 2 + 3 + 4 +

Gb|------------------|------------------|
Db|------------------|------------------|
Ab|-3-------------1--|------------------|
Eb|------------------|------------------|
    1 + 2 + 3 + 4 +    1 + 2 + 3 + 4 +

CHORUS

Gb|------------------|------------------|------------------|------------------|
Db|------------------|-----------3-2-3--|------------------|---3-2-3-5-3-2----|
Ab|-5-5-5-5----------|-1-1-1-1-1--------|-5-5-5-5----------|-1-------------3--|
Eb|---------1-1-1-1--|------------------|---------1-1-1-1--|------------------|
    1 + 2 + 3 + 4 +    1 + 2 + 3 + 4 +    1 + 2 + 3 + 4 +    1 + 2 + 3 + 4 +

Gb|------------------|------------------|------------------|------------------|
Db|------------------|------------------|------------------|------------------|
Ab|-5-5-5-5----------|-1-1-1-1-1-1-1-1--|-3-3-3-3-3-3-3-1--|---1-1-1-1-1-1-1--|
Eb|---------1-1-1-1--|------------------|------------------|------------------|
    1 + 2 + 3 + 4 +    1 + 2 + 3 + 4 +    1 + 2 + 3 + 4 +    1 + 2 + 3 + 4 +

Gb|------------------|------------------|------------------|------------------||
Db|------------------|-------------2-3--|------------------|------------------||
Ab|-3-3-3-3-3-3-3-1--|---1-1-1-1-3------|-3----------------|------------------||
Eb|------------------|------------------|------------------|------------------||
    1 + 2 + 3 + 4 +    1 + 2 + 3 + 4 +    1 + 2 + 3 + 4 +    1 + 2 + 3 + 4 +

            
            
Suggest correction
Creating personal tab
Creating personal tab
You can edit any tab online and save it as your Personal.

You can edit, replace or remove any tab part or add personal notes – all changes will be seen only by you.

Personal tabs can be accessed anytime from any device, even offline.
Learn more »
comments
print report bad tab
2 comments total.
0 reply
Xo Synyster oX 10 Mar 31, 2010 01:46 PM

Think the Interlude is wrong, otherwise, very good tab, 5* ...

0 reply
chromaticvision 4,067 Mar 31, 2010 02:57 PM

its not.

guest
You may want to rate the tab now too:
select rating
Wanna post a correction for this tab? Suggest correction