Oops, an error
Loading. Please wait.

To The Core tab

version 3
version 3

Whole song

  • Remember that the drums are in double time for the... Show more

Interactive

28 views 1 this week
no commentswrite comment
1 2 3 4 5
3 more votes to show rating
add to favorites
×
Save as Personal and add changes to this tab that will be seen only by you. Learn more ›
×
You can save this tab as Personal to edit and correct it or add notes. All changes will be seen only by you. Learn more »
launch autoscroll
font size
0
reset
how to read this tab
guitar tuner
edit
Autoscroll
slow
fast
+/-
esc
set tempo
stop
About this tab version
Remember that the drums are in double time for the main riff and chorus. Make sure to play the chords exactly as tabbed (but you can strum differently if desired). Was this info helpful? Yes No
[Main Riff]
eb|------------------|---------------------||
Bb|o-----------------|--------------------0||
Gb|------------------|---------------------||
Db|--7-9---9---9-9-9-|-10-10---10-9-9---9--||
Ab|o-5-7---7---7-7-7-|-8--8----8--6-6---6-0||
Eb|--5-7---7---7-7-7-|-8--8----8--7-7---7--||

[Chorus]                                                                    2x
eb|------------------|-----------------|-----------------|------------------||
Bb|o-----------------|-----------------|-----------------|-----------------o||
Gb|------------------|-----------------|-----------------|------------------||
Db|--2-2---2---2-2-2-|-3-3---3---3-3-3-|-2-2---2---2-2-2-|-5-5---5-3-3---3--||
Ab|o-2-2---2---2-2-2-|-3-3---3---3-3-3-|-2-2---2---2-2-2-|-5-5---5-3-3---3-o||
Eb|--0-0---0---0-0-0-|-1-1---1---1-1-1-|-0-0---0---0-0-0-|-3-3---3-1-1---1--||

[Bridge]
eb|--------------------------------------------------------------||
Bb|--------------------------------------------------------------||
Gb|----------[Bass riff and guitar feedback]---------------------||
Db|-2--------------------------------------------7-7-7-7-7-7-7-7-||
Ab|-2--------------------------------------------7-7-7-7-7-7-7-7-||
Eb|-0--------------------------------------------5-5-5-5-5-5-5-5-||
PM                                               . . . .
                                                                            4x
eb|------------------|-----------------|-----------------|------------------||
Bb|o-----------------|-----------------|-----------------|-----------------o||
Gb|------------------|-5-5-5-5---------|-----------------|------------------||
Db|--3---3-3-3-3-3-3-|-5-5-5-5-5-5-5-5-|-7---7-7-7-7-7-7-|-7-7-7-7-7-7-7-7--||
Ab|o-3---3-3-3-3-3-3-|-3-3-3-3-5-5-5-5-|-7---7-7-7-7-7-7-|-7-7-7-7-7-7-7-7-o||
Eb|--1---1-1-1-1-1-1-|---------3-3-3-3-|-5---5-5-5-5-5-5-|-5-5-5-5-5-5-5-5--||


[Bridge ends on]     [Song ends on]
eb|------------||    eb|-----------||
Bb|------------||    Bb|-----------||
Gb|------------||    Gb|-----------||
Db|-7----------||    Db|-9---------||
Ab|-7----------||    Ab|-7---------||
Eb|-5----------||    Eb|-7---------||



************************************

| b  Bend
| x  Dead note
 
| PM Palm mute

************************************

            
            
Suggest correction
Creating personal tab
Creating personal tab
You can edit any tab online and save it as your Personal.

You can edit, replace or remove any tab part or add personal notes – all changes will be seen only by you.

Personal tabs can be accessed anytime from any device, even offline.
Learn more »
Give kudos to tab author, rate the tab!
1 2 3 4 5
comments
print report bad tab
guest
You may want to rate the tab now too:
select rating
Wanna post a correction for this tab? Suggest correction