Oops, an error
Loading. Please wait.
We have an official To Them These Streets Belong tab made by UG professional guitarists. Check out the tab »
×
3,739 views 3 this week
no commentswrite comment
1 2 3 4 5
x 3
add to favorites
×
Save as Personal and add changes to this tab that will be seen only by you. Learn more ›
×
You can save this tab as Personal to edit and correct it or add notes. All changes will be seen only by you. Learn more »
launch autoscroll
font size
0
reset
how to read this tab
guitar tuner
edit
Autoscroll
slow
fast
+/-
esc
set tempo
stop
To Them These Streets Belong
Rise Against
Siren Song of The Counter Culture (2004)

To Them These Streets Belong: written by Tim McIlrath, Chris Chasse, Joe 
Principe, and Brandon Barnes

GTR I - Eb Tuning (eb,Bb,Gb,Db,Ab,Eb)
GTR II - Eb Tuning (eb,Bb,Gb,Db,Ab,Eb)

Intro

   GTR I
eb|-------------------------------------------------|
Bb|-------------------------------------------------|
Gb|--------------------------7----------------------|
Db|--5-----------------------7----------------------|
Ab|--5-----------------------5----------------------|
Eb|--3----------------------------------------------|

   GTR I
eb|-------------------------------------------------|
Bb|-------------------------------------------------|
Gb|--9----------------------------------------------|
Db|--9----------------------------------------------|
Ab|--7----------------------------------------------|
Eb|-------------------------------------------------|

   GTR I
eb|-------------------------------------------------|
Bb|-------------------------------------------------|
Gb|--5-----------------------7----------------------|
Db|--5-----------------------7----------------------|
Ab|--3-----------------------5----------------------|
Eb|-------------------------------------------------|

   GTR I
eb|-------------------------------------------------|
Bb|-------------------------------------------------|
Gb|-------------------------------------------------|
Db|--2----------------------------------------------|
Ab|--2----------------------------------------------|
Eb|--0----------------------------------------------|

   GTR I
eb|-------------------------------------------------|
Bb|-------------------------------------------------|
Gb|--------------------------7----------------------|
Db|--5-----------------------7----------------------|
Ab|--5-----------------------5----------------------|
Eb|--3----------------------------------------------|

   GTR I
eb|-------------------------------------------------|
Bb|-------------------------------------------------|
Gb|--9----------------------------------------------|
Db|--9----------------------------------------------|
Ab|--7----------------------------------------------|
Eb|-------------------------------------------------|

   GTR I
eb|-------------------------------------------------|
Bb|-------------------------------------------------|
Gb|--5-----------------------7----------------------|
Db|--5-----------------------7----------------------|
Ab|--3-----------------------5----------------------|
Eb|-------------------------------------------------|

   GTR I
eb|-------------------------------------------------|
Bb|-------------------------------------------------|
Gb|-------------------------------------------------|
Db|--2----------------------------------------------|
Ab|--2----------------------------------------------|
Eb|--0----------------------------------------------|

Verse

   GTR I
eb|-------------------------------------------------|
Bb|-------------------------------------------------|
Gb|--4--------4-----------4--5--5--5--------7--7--7-|
Db|--4--2--2--4--2--2--2--4--5--5--5--5--5--7--7--7-|
Ab|--2--2--2--2--2--2--2--2--3--3--3--5--5--5--5--5-|
Eb|-----0--0-----0--0--0--------------3--3----------|

   GTR I
eb|-------------------------------------------------|
Bb|-------------------------------------------------|
Gb|--4--------4-----------4--5--5--5--------7--7--7-|
Db|--4--2--2--4--2--2--2--4--5--5--5--5--5--7--7--7-|
Ab|--2--2--2--2--2--2--2--2--3--3--3--5--5--5--5--5-|
Eb|-----0--0-----0--0--0--------------3--3----------|

   GTR I
eb|-------------------------------------------------|
Bb|-------------------------------------------------|
Gb|--4--------4-----------4--5--5--5--------7--7--7-|
Db|--4--2--2--4--2--2--2--4--5--5--5--5--5--7--7--7-|
Ab|--2--2--2--2--2--2--2--2--3--3--3--5--5--5--5--5-|
Eb|-----0--0-----0--0--0--------------3--3----------|

   GTR I
eb|-------------------------------------------------|
Bb|-------------------------------------------------|
Gb|--4--------4-----------4--5--5--5--------7--7--7-|
Db|--4--2--2--4--2--2--2--4--5--5--5--5--5--7--7--7-|
Ab|--2--2--2--2--2--2--2--2--3--3--3--5--5--5--5--5-|
Eb|-----0--0-----0--0--0--------------3--3----------|

   GTR I
eb|-------------------------------------------------|
Bb|-------------------------------------------------|
Gb|--9-----9--9-----9--9-----9-----------9-----7----|
Db|--9-----9--9-----9--9-----9-----------9-----7----|
Ab|--7-----7--7-----7--7-----7-----------7-----5----|
Eb|-------------------------------------------------|

Chorus

   GTR I
eb|-------------------------------------------------|
Bb|-------------------------------------------------|
Gb|--5-----5--5-----5--5-----5-----5--5-----5--5----|
Db|--5-----5--5-----5--5-----5-----5--5-----5--5----|
Ab|--3-----3--3-----3--3-----3-----3--3-----3--3----|
Eb|-------------------------------------------------|
  |
  |GTR II
eb|-------------------------------------------------|
Bb|-------------------------------------------------|
Gb|-12-12-12-12-12-12-12-12-12-12-12-12-12-12-12-12-|
Db|--x--x--x--x--x--x--x--x--x--x--x--x--x--x--x--x-|
Ab|-10-10-10-10-10-10-10-10-10-10-10-10-10-10-10-10-|
Eb|-------------------------------------------------|

   GTR I
eb|-------------------------------------------------|
Bb|-------------------------------------------------|
Gb|--7-----7--7-----7--7-----7-----7--7-----7--7----|
Db|--7-----7--7-----7--7-----7-----7--7-----7--7----|
Ab|--5-----5--5-----5--5-----5-----5--5-----5--5----|
Eb|-------------------------------------------------|
  |
  |GTR II
eb|-------------------------------------------------|
Bb|-------------------------------------------------|
Gb|-11-11-11-11-11-11-11-11--7--7--7--7--7--7--7--7-|
Db|--x--x--x--x--x--x--x--x--x--x--x--x--x--x--x--x-|
Ab|--9--9--9--9--9--9--9--9--5--5--5--5--5--5--5--5-|
Eb|-------------------------------------------------|

   GTR I
eb|-------------------------------------------------|
Bb|-------------------------------------------------|
Gb|--9-----9--9-----9--9----11----11----12----12----|
Db|--9-----9--9-----9--9----11----11----12----12----|
Ab|--7-----7--7-----7--7-----9-----9----10----10----|
Eb|-------------------------------------------------|
  |
  |GTR II
eb|-------------------------------------------------|
Bb|-------------------------------------------------|
Gb|--9--9--9--9--9--9--9--9-11-11-11-11-12-12-12-12-|
Db|--x--x--x--x--x--x--x--x--x--x--x--x--x--x--x--x-|
Ab|--7--7--7--7--7--7--7--7--9--9--9--9-10-10-10-10-|
Eb|-------------------------------------------------|

   GTR I
eb|-------------------------------------------------|
Bb|-------------------------------------------------|
Gb|--5-----5--5-----5--5-----5-----5--5-----5--5----|
Db|--5-----5--5-----5--5-----5-----5--5-----5--5----|
Ab|--3-----3--3-----3--3-----3-----3--3-----3--3----|
Eb|-------------------------------------------------|
  |
  |GTR II
eb|-------------------------------------------------|
Bb|-------------------------------------------------|
Gb|--5--5--5--5--5--5--5--5--5--5--5--5--5--5--5--5-|
Db|--x--x--x--x--x--x--x--x--x--x--x--x--x--x--x--x-|
Ab|--3--3--3--3--3--3--3--3--3--3--3--3--3--3--3--3-|
Eb|-------------------------------------------------|

   GTR I
eb|-------------------------------------------------|
Bb|-------------------------------------------------|
Gb|--5-----5--5-----5--5-----5-----5--5-----5--5----|
Db|--5-----5--5-----5--5-----5-----5--5-----5--5----|
Ab|--3-----3--3-----3--3-----3-----3--3-----3--3----|
Eb|-------------------------------------------------|
  |
  |GTR II
eb|-------------------------------------------------|
Bb|-------------------------------------------------|
Gb|-12-12-12-12-12-12-12-12-12-12-12-12-12-12-12-12-|
Db|--x--x--x--x--x--x--x--x--x--x--x--x--x--x--x--x-|
Ab|-10-10-10-10-10-10-10-10-10-10-10-10-10-10-10-10-|
Eb|-------------------------------------------------|

   GTR I
eb|-------------------------------------------------|
Bb|-------------------------------------------------|
Gb|--7-----7--7-----7--7-----7-----7--7-----7--7----|
Db|--7-----7--7-----7--7-----7-----7--7-----7--7----|
Ab|--5-----5--5-----5--5-----5-----5--5-----5--5----|
Eb|-------------------------------------------------|
  |
  |GTR II
eb|-------------------------------------------------|
Bb|-------------------------------------------------|
Gb|-11-11-11-11-11-11-11-11--7--7--7--7--7--7--7--7-|
Db|--x--x--x--x--x--x--x--x--x--x--x--x--x--x--x--x-|
Ab|--9--9--9--9--9--9--9--9--5--5--5--5--5--5--5--5-|
Eb|-------------------------------------------------|

   GTR I
eb|-------------------------------------------------|
Bb|-------------------------------------------------|
Gb|-------------------------------------------------|
Db|--2-----2--2-----2--2-----2-----2--2-----2--2----|
Ab|--2-----2--2-----2--2-----2-----2--2-----2--2----|
Eb|--0-----0--0-----0--0-----0-----0--0-----0--0----|
  |
  |GTR II
eb|-------------------------------------------------|
Bb|-------------------------------------------------|
Gb|--9-----9--9-----9--9-----9-----9--9-----9--9----|
Db|--x-----x--x-----x--x-----x-----x--x-----x--x----|
Ab|--7-----7--7-----7--7-----7-----7--7-----7--7----|
Eb|-------------------------------------------------|

   GTR I
eb|-------------------------------------------------|
Bb|-------------------------------------------------|
Gb|-------------------------------------------------|
Db|--------------------2-----0----------------------|
Ab|--0-----2-----3-----------------3-----2-----0----|
Eb|-------------------------------------------------|
  |
  |GTR II
eb|-------------------------------------------------|
Bb|-------------------------------------------------|
Gb|-------------------------------------------------|
Db|--------------------2-----0----------------------|
Ab|--0-----2-----3-----------------3-----2-----0----|
Eb|-------------------------------------------------|

   GTR I
eb|-------------------------------------------------|
Bb|-------------------------------------------------|
Gb|--5-----5--5-----5--5-----5-----5--5-----5--5----|
Db|--5-----5--5-----5--5-----5-----5--5-----5--5----|
Ab|--3-----3--3-----3--3-----3-----3--3-----3--3----|
Eb|-------------------------------------------------|
  |
  |GTR II
eb|-------------------------------------------------|
Bb|-------------------------------------------------|
Gb|-12-12-12-12-12-12-12-12-12-12-12-12-12-12-12-12-|
Db|--x--x--x--x--x--x--x--x--x--x--x--x--x--x--x--x-|
Ab|-10-10-10-10-10-10-10-10-10-10-10-10-10-10-10-10-|
Eb|-------------------------------------------------|

   GTR I
eb|-------------------------------------------------|
Bb|-------------------------------------------------|
Gb|--7-----7--7-----7--7-----7-----7--7-----7--7----|
Db|--7-----7--7-----7--7-----7-----7--7-----7--7----|
Ab|--5-----5--5-----5--5-----5-----5--5-----5--5----|
Eb|-------------------------------------------------|
  |
  |GTR II
eb|-------------------------------------------------|
Bb|-------------------------------------------------|
Gb|-11-11-11-11-11-11-11-11--7--7--7--7--7--7--7--7-|
Db|--x--x--x--x--x--x--x--x--x--x--x--x--x--x--x--x-|
Ab|--9--9--9--9--9--9--9--9--5--5--5--5--5--5--5--5-|
Eb|-------------------------------------------------|

   GTR I
eb|-------------------------------------------------|
Bb|-------------------------------------------------|
Gb|--9-----9--9-----9--9----11----11----12----12----|
Db|--9-----9--9-----9--9----11----11----12----12----|
Ab|--7-----7--7-----7--7-----9-----9----10----10----|
Eb|-------------------------------------------------|
  |
  |GTR II
eb|-------------------------------------------------|
Bb|-------------------------------------------------|
Gb|--9--9--9--9--9--9--9--9-11-11-11-11-12-12-12-12-|
Db|--x--x--x--x--x--x--x--x--x--x--x--x--x--x--x--x-|
Ab|--7--7--7--7--7--7--7--7--9--9--9--9-10-10-10-10-|
Eb|-------------------------------------------------|

   GTR I
eb|-------------------------------------------------|
Bb|-------------------------------------------------|
Gb|--5-----5--5-----5--5-----5-----5--5-----5--5----|
Db|--5-----5--5-----5--5-----5-----5--5-----5--5----|
Ab|--3-----3--3-----3--3-----3-----3--3-----3--3----|
Eb|-------------------------------------------------|
  |
  |GTR II
eb|-------------------------------------------------|
Bb|-------------------------------------------------|
Gb|--5--5--5--5--5--5--5--5--5--5--5--5--5--5--5--5-|
Db|--x--x--x--x--x--x--x--x--x--x--x--x--x--x--x--x-|
Ab|--3--3--3--3--3--3--3--3--3--3--3--3--3--3--3--3-|
Eb|-------------------------------------------------|

   GTR I
eb|-------------------------------------------------|
Bb|-------------------------------------------------|
Gb|--5-----5--5-----5--5-----5-----5--5-----5--5----|
Db|--5-----5--5-----5--5-----5-----5--5-----5--5----|
Ab|--3-----3--3-----3--3-----3-----3--3-----3--3----|
Eb|-------------------------------------------------|
  |
  |GTR II
eb|-------------------------------------------------|
Bb|-------------------------------------------------|
Gb|-12-12-12-12-12-12-12-12-12-12-12-12-12-12-12-12-|
Db|--x--x--x--x--x--x--x--x--x--x--x--x--x--x--x--x-|
Ab|-10-10-10-10-10-10-10-10-10-10-10-10-10-10-10-10-|
Eb|-------------------------------------------------|

   GTR I
eb|-------------------------------------------------|
Bb|-------------------------------------------------|
Gb|--7-----7--7-----7--7-----7-----7--7-----7--7----|
Db|--7-----7--7-----7--7-----7-----7--7-----7--7----|
Ab|--5-----5--5-----5--5-----5-----5--5-----5--5----|
Eb|-------------------------------------------------|
  |
  |GTR II
eb|-------------------------------------------------|
Bb|-------------------------------------------------|
Gb|-11-11-11-11-11-11-11-11--7--7--7--7--7--7--7--7-|
Db|--x--x--x--x--x--x--x--x--x--x--x--x--x--x--x--x-|
Ab|--9--9--9--9--9--9--9--9--5--5--5--5--5--5--5--5-|
Eb|-------------------------------------------------|

   GTR I
eb|-------------------------------------------------|
Bb|-------------------------------------------------|
Gb|--------------------4-----------------------4----|
Db|--2-----2--2-----2--4-----2-----2--2-----2--4----|
Ab|--2-----2--2-----2--2-----2-----2--2-----2--2----|
Eb|--0-----0--0-----0--------0-----0--0-----0-------|
  |
  |GTR II
eb|-------------------------------------------------|
Bb|-------------------------------------------------|
Gb|--9-----9--9-----9--9-----9-----9--9-----9--9----|
Db|--x-----x--x-----x--x-----x-----x--x-----x--x----|
Ab|--7-----7--7-----7--7-----7-----7--7-----7--7----|
Eb|-------------------------------------------------|

   GTR I
eb|-------------------------------------------------|
Bb|-------------------------------------------------|
Gb|--------------------4----------------------------|
Db|--2-----2--2-----2--4-----2----------------------|
Ab|--2-----2--2-----2--2-----2----------------------|
Eb|--0-----0--0-----0--------0----------------------|
  |
  |GTR II
eb|-------------------------------------------------|
Bb|-------------------------------------------------|
Gb|--9-----9--9-----9--9-----9----------------------|
Db|--x-----x--x-----x--x-----x----------------------|
Ab|--7-----7--7-----7--7-----7----------------------|
Eb|-------------------------------------------------|

Verse

   GTR I
eb|-------------------------------------------------|
Bb|-------------------------------------------------|
Gb|--4--------4-----------4--5--5--5--------7--7--7-|
Db|--4--2--2--4--2--2--2--4--5--5--5--5--5--7--7--7-|
Ab|--2--2--2--2--2--2--2--2--3--3--3--5--5--5--5--5-|
Eb|-----0--0-----0--0--0--------------3--3----------|

   GTR I
eb|-------------------------------------------------|
Bb|-------------------------------------------------|
Gb|--4--------4-----------4--5--5--5--------7--7--7-|
Db|--4--2--2--4--2--2--2--4--5--5--5--5--5--7--7--7-|
Ab|--2--2--2--2--2--2--2--2--3--3--3--5--5--5--5--5-|
Eb|-----0--0-----0--0--0--------------3--3----------|

   GTR I
eb|-------------------------------------------------|
Bb|-------------------------------------------------|
Gb|--4--------4-----------4--5--5--5--------7--7--7-|
Db|--4--2--2--4--2--2--2--4--5--5--5--5--5--7--7--7-|
Ab|--2--2--2--2--2--2--2--2--3--3--3--5--5--5--5--5-|
Eb|-----0--0-----0--0--0--------------3--3----------|

   GTR I
eb|-------------------------------------------------|
Bb|-------------------------------------------------|
Gb|--4--------4-----------4--5--5--5--------7--7--7-|
Db|--4--2--2--4--2--2--2--4--5--5--5--5--5--7--7--7-|
Ab|--2--2--2--2--2--2--2--2--3--3--3--5--5--5--5--5-|
Eb|-----0--0-----0--0--0--------------3--3----------|

   GTR I
eb|-------------------------------------------------|
Bb|-------------------------------------------------|
Gb|--9-----9--9-----9--9-----9-----------9-----7----|
Db|--9-----9--9-----9--9-----9-----------9-----7----|
Ab|--7-----7--7-----7--7-----7-----------7-----5----|
Eb|-------------------------------------------------|

Chorus

   GTR I
eb|-------------------------------------------------|
Bb|-------------------------------------------------|
Gb|--5-----5--5-----5--5-----5-----5--5-----5--5----|
Db|--5-----5--5-----5--5-----5-----5--5-----5--5----|
Ab|--3-----3--3-----3--3-----3-----3--3-----3--3----|
Eb|-------------------------------------------------|
  |
  |GTR II
eb|-------------------------------------------------|
Bb|-------------------------------------------------|
Gb|-12-12-12-12-12-12-12-12-12-12-12-12-12-12-12-12-|
Db|--x--x--x--x--x--x--x--x--x--x--x--x--x--x--x--x-|
Ab|-10-10-10-10-10-10-10-10-10-10-10-10-10-10-10-10-|
Eb|-------------------------------------------------|

   GTR I
eb|-------------------------------------------------|
Bb|-------------------------------------------------|
Gb|--7-----7--7-----7--7-----7-----7--7-----7--7----|
Db|--7-----7--7-----7--7-----7-----7--7-----7--7----|
Ab|--5-----5--5-----5--5-----5-----5--5-----5--5----|
Eb|-------------------------------------------------|
  |
  |GTR II
eb|-------------------------------------------------|
Bb|-------------------------------------------------|
Gb|-11-11-11-11-11-11-11-11--7--7--7--7--7--7--7--7-|
Db|--x--x--x--x--x--x--x--x--x--x--x--x--x--x--x--x-|
Ab|--9--9--9--9--9--9--9--9--5--5--5--5--5--5--5--5-|
Eb|-------------------------------------------------|

   GTR I
eb|-------------------------------------------------|
Bb|-------------------------------------------------|
Gb|--9-----9--9-----9--9----11----11----12----12----|
Db|--9-----9--9-----9--9----11----11----12----12----|
Ab|--7-----7--7-----7--7-----9-----9----10----10----|
Eb|-------------------------------------------------|
  |
  |GTR II
eb|-------------------------------------------------|
Bb|-------------------------------------------------|
Gb|--9--9--9--9--9--9--9--9-11-11-11-11-12-12-12-12-|
Db|--x--x--x--x--x--x--x--x--x--x--x--x--x--x--x--x-|
Ab|--7--7--7--7--7--7--7--7--9--9--9--9-10-10-10-10-|
Eb|-------------------------------------------------|

   GTR I
eb|-------------------------------------------------|
Bb|-------------------------------------------------|
Gb|--5-----5--5-----5--5-----5-----5--5-----5--5----|
Db|--5-----5--5-----5--5-----5-----5--5-----5--5----|
Ab|--3-----3--3-----3--3-----3-----3--3-----3--3----|
Eb|-------------------------------------------------|
  |
  |GTR II
eb|-------------------------------------------------|
Bb|-------------------------------------------------|
Gb|--5--5--5--5--5--5--5--5--5--5--5--5--5--5--5--5-|
Db|--x--x--x--x--x--x--x--x--x--x--x--x--x--x--x--x-|
Ab|--3--3--3--3--3--3--3--3--3--3--3--3--3--3--3--3-|
Eb|-------------------------------------------------|

   GTR I
eb|-------------------------------------------------|
Bb|-------------------------------------------------|
Gb|--5-----5--5-----5--5-----5-----5--5-----5--5----|
Db|--5-----5--5-----5--5-----5-----5--5-----5--5----|
Ab|--3-----3--3-----3--3-----3-----3--3-----3--3----|
Eb|-------------------------------------------------|
  |
  |GTR II
eb|-------------------------------------------------|
Bb|-------------------------------------------------|
Gb|-12-12-12-12-12-12-12-12-12-12-12-12-12-12-12-12-|
Db|--x--x--x--x--x--x--x--x--x--x--x--x--x--x--x--x-|
Ab|-10-10-10-10-10-10-10-10-10-10-10-10-10-10-10-10-|
Eb|-------------------------------------------------|

   GTR I
eb|-------------------------------------------------|
Bb|-------------------------------------------------|
Gb|--7-----7--7-----7--7-----7-----7--7-----7--7----|
Db|--7-----7--7-----7--7-----7-----7--7-----7--7----|
Ab|--5-----5--5-----5--5-----5-----5--5-----5--5----|
Eb|-------------------------------------------------|
  |
  |GTR II
eb|-------------------------------------------------|
Bb|-------------------------------------------------|
Gb|-11-11-11-11-11-11-11-11--7--7--7--7--7--7--7--7-|
Db|--x--x--x--x--x--x--x--x--x--x--x--x--x--x--x--x-|
Ab|--9--9--9--9--9--9--9--9--5--5--5--5--5--5--5--5-|
Eb|-------------------------------------------------|

   GTR I
eb|-------------------------------------------------|
Bb|-------------------------------------------------|
Gb|-------------------------------------------------|
Db|--2-----2--2-----2--2-----2-----2--2-----2--2----|
Ab|--2-----2--2-----2--2-----2-----2--2-----2--2----|
Eb|--0-----0--0-----0--0-----0-----0--0-----0--0----|
  |
  |GTR II
eb|-------------------------------------------------|
Bb|-------------------------------------------------|
Gb|--9-----9--9-----9--9-----9-----9--9-----9--9----|
Db|--x-----x--x-----x--x-----x-----x--x-----x--x----|
Ab|--7-----7--7-----7--7-----7-----7--7-----7--7----|
Eb|-------------------------------------------------|

   GTR I
eb|-------------------------------------------------|
Bb|-------------------------------------------------|
Gb|-------------------------------------------------|
Db|--------------------2-----0----------------------|
Ab|--0-----2-----3-----------------3-----2-----0----|
Eb|-------------------------------------------------|
  |
  |GTR II
eb|-------------------------------------------------|
Bb|-------------------------------------------------|
Gb|-------------------------------------------------|
Db|--------------------2-----0----------------------|
Ab|--0-----2-----3-----------------3-----2-----0----|
Eb|-------------------------------------------------|

   GTR I
eb|-------------------------------------------------|
Bb|-------------------------------------------------|
Gb|--5-----5--5-----5--5-----5-----5--5-----5--5----|
Db|--5-----5--5-----5--5-----5-----5--5-----5--5----|
Ab|--3-----3--3-----3--3-----3-----3--3-----3--3----|
Eb|-------------------------------------------------|
  |
  |GTR II
eb|-------------------------------------------------|
Bb|-------------------------------------------------|
Gb|-12-12-12-12-12-12-12-12-12-12-12-12-12-12-12-12-|
Db|--x--x--x--x--x--x--x--x--x--x--x--x--x--x--x--x-|
Ab|-10-10-10-10-10-10-10-10-10-10-10-10-10-10-10-10-|
Eb|-------------------------------------------------|

   GTR I
eb|-------------------------------------------------|
Bb|-------------------------------------------------|
Gb|--7-----7--7-----7--7-----7-----7--7-----7--7----|
Db|--7-----7--7-----7--7-----7-----7--7-----7--7----|
Ab|--5-----5--5-----5--5-----5-----5--5-----5--5----|
Eb|-------------------------------------------------|
  |
  |GTR II
eb|-------------------------------------------------|
Bb|-------------------------------------------------|
Gb|-11-11-11-11-11-11-11-11--7--7--7--7--7--7--7--7-|
Db|--x--x--x--x--x--x--x--x--x--x--x--x--x--x--x--x-|
Ab|--9--9--9--9--9--9--9--9--5--5--5--5--5--5--5--5-|
Eb|-------------------------------------------------|

   GTR I
eb|-------------------------------------------------|
Bb|-------------------------------------------------|
Gb|--9-----9--9-----9--9----11----11----12----12----|
Db|--9-----9--9-----9--9----11----11----12----12----|
Ab|--7-----7--7-----7--7-----9-----9----10----10----|
Eb|-------------------------------------------------|
  |
  |GTR II
eb|-------------------------------------------------|
Bb|-------------------------------------------------|
Gb|--9--9--9--9--9--9--9--9-11-11-11-11-12-12-12-12-|
Db|--x--x--x--x--x--x--x--x--x--x--x--x--x--x--x--x-|
Ab|--7--7--7--7--7--7--7--7--9--9--9--9-10-10-10-10-|
Eb|-------------------------------------------------|

   GTR I
eb|-------------------------------------------------|
Bb|-------------------------------------------------|
Gb|--5-----5--5-----5--5-----5-----5--5-----5--5----|
Db|--5-----5--5-----5--5-----5-----5--5-----5--5----|
Ab|--3-----3--3-----3--3-----3-----3--3-----3--3----|
Eb|-------------------------------------------------|
  |
  |GTR II
eb|-------------------------------------------------|
Bb|-------------------------------------------------|
Gb|--5--5--5--5--5--5--5--5--5--5--5--5--5--5--5--5-|
Db|--x--x--x--x--x--x--x--x--x--x--x--x--x--x--x--x-|
Ab|--3--3--3--3--3--3--3--3--3--3--3--3--3--3--3--3-|
Eb|-------------------------------------------------|

   GTR I
eb|-------------------------------------------------|
Bb|-------------------------------------------------|
Gb|--5-----5--5-----5--5-----5-----5--5-----5--5----|
Db|--5-----5--5-----5--5-----5-----5--5-----5--5----|
Ab|--3-----3--3-----3--3-----3-----3--3-----3--3----|
Eb|-------------------------------------------------|
  |
  |GTR II
eb|-------------------------------------------------|
Bb|-------------------------------------------------|
Gb|-12-12-12-12-12-12-12-12-12-12-12-12-12-12-12-12-|
Db|--x--x--x--x--x--x--x--x--x--x--x--x--x--x--x--x-|
Ab|-10-10-10-10-10-10-10-10-10-10-10-10-10-10-10-10-|
Eb|-------------------------------------------------|

   GTR I
eb|-------------------------------------------------|
Bb|-------------------------------------------------|
Gb|--7-----7--7-----7--7-----7-----7--7-----7--7----|
Db|--7-----7--7-----7--7-----7-----7--7-----7--7----|
Ab|--5-----5--5-----5--5-----5-----5--5-----5--5----|
Eb|-------------------------------------------------|
  |
  |GTR II
eb|-------------------------------------------------|
Bb|-------------------------------------------------|
Gb|-11-11-11-11-11-11-11-11--7--7--7--7--7--7--7--7-|
Db|--x--x--x--x--x--x--x--x--x--x--x--x--x--x--x--x-|
Ab|--9--9--9--9--9--9--9--9--5--5--5--5--5--5--5--5-|
Eb|-------------------------------------------------|

   GTR I
eb|-------------------------------------------------|
Bb|-------------------------------------------------|
Gb|--------------------4-----------------------4----|
Db|--2-----2--2-----2--4-----2-----2--2-----2--4----|
Ab|--2-----2--2-----2--2-----2-----2--2-----2--2----|
Eb|--0-----0--0-----0--------0-----0--0-----0-------|
  |
  |GTR II
eb|-------------------------------------------------|
Bb|-------------------------------------------------|
Gb|--9-----9--9-----9--9-----9-----9--9-----9--9----|
Db|--x-----x--x-----x--x-----x-----x--x-----x--x----|
Ab|--7-----7--7-----7--7-----7-----7--7-----7--7----|
Eb|-------------------------------------------------|

   GTR I
eb|-------------------------------------------------|
Bb|-------------------------------------------------|
Gb|--------------------4----------------------------|
Db|--2-----2--2-----2--4-----2----------------------|
Ab|--2-----2--2-----2--2-----2----------------------|
Eb|--0-----0--0-----0--------0----------------------|
  |
  |GTR II
eb|-------------------------------------------------|
Bb|-------------------------------------------------|
Gb|--9-----9--9-----9--9-----9----------------------|
Db|--x-----x--x-----x--x-----x----------------------|
Ab|--7-----7--7-----7--7-----7----------------------|
Eb|-------------------------------------------------|

Bridge

   GTR I
eb|-------------------------------------------------|
Bb|-------------------------------------------------|
Gb|-------------------------------------------------|
Db|--------------------------5----------------------|
Ab|--------------------------5----------------------|
Eb|--------------------------3----------------------|

   GTR I
eb|-------------------------------------------------|
Bb|-------------------------------------------------|
Gb|--7-----------------------9----------------------|
Db|--7-----------------------9----------------------|
Ab|--5-----------------------7----------------------|
Eb|-------------------------------------------------|

   GTR I
eb|-------------------------------------------------|
Bb|-------------------------------------------------|
Gb|--------------------------5----------------------|
Db|--------------------------5----------------------|
Ab|--------------------------3----------------------|
Eb|-------------------------------------------------|

   GTR I
eb|-------------------------------------------------|
Bb|-------------------------------------------------|
Gb|--7----------------------------------------------|
Db|--7-----------------------2----------------------|
Ab|--5-----------------------2----------------------|
Eb|--------------------------0----------------------|

   GTR I
eb|-------------------------------------------------|
Bb|-------------------------------------------------|
Gb|-------------------------------------------------|
Db|--------------------------5----------------------|
Ab|--------------------------5----------------------|
Eb|--------------------------3----------------------|

   GTR I
eb|-------------------------------------------------|
Bb|-------------------------------------------------|
Gb|--7-----------------------9----------------------|
Db|--7-----------------------9----------------------|
Ab|--5-----------------------7----------------------|
Eb|-------------------------------------------------|

   GTR I
eb|-------------------------------------------------|
Bb|-------------------------------------------------|
Gb|--------------------------5----------------------|
Db|--------------------------5----------------------|
Ab|--------------------------3----------------------|
Eb|-------------------------------------------------|

   GTR I
eb|-------------------------------------------------|
Bb|-------------------------------------------------|
Gb|--7----------------------------------------------|
Db|--7-----------------------2----------------------|
Ab|--5-----------------------2--2--2--2--2--2--2--2-|
Eb|--------------------------0--0--0--0--0--0--0--0-|
  |                             .  .  .  .  .  .  .
  |GTR II
eb|-------------------------------------------------|
Bb|-------------------------------------------------|
Gb|-------------------------------------------------|
Db|-------------------------------------------------|
Ab|-----------------------------2--2--2--2--2--2--2-|
Eb|-----------------------------0--0--0--0--0--0--0-|
                                .  .  .  .  .  .  .

   GTR I, II
eb|-------------------------------------------------|
Bb|-------------------------------------------------|
Gb|-------------------------------------------------|
Db|--------------------------5--5--5--5--5--5--5--5-|
Ab|--2--2--2--2--2--2--2--2--5--5--5--5--5--5--5--5-|
Eb|--0--0--0--0--0--0--0--0--3--3--3--3--3--3--3--3-|
     .  .  .  .  .  .  .  .

   GTR I, II
eb|-------------------------------------------------|
Bb|-------------------------------------------------|
Gb|--7--7--7--7--7--7--7--7--9--9--9--9--9--9--9--9-|
Db|--7--7--7--7--7--7--7--7--9--9--9--9--9--9--9--9-|
Ab|--5--5--5--5--5--5--5--5--7--7--7--7--7--7--7--7-|
Eb|-------------------------------------------------|

   GTR I, II
eb|-------------------------------------------------|
Bb|-------------------------------------------------|
Gb|--9--9--9--9--9--9--9--9--5--5--5--5--5--5--5--5-|
Db|--9--9--9--9--9--9--9--9--5--5--5--5--5--5--5--5-|
Ab|--7--7--7--7--7--7--7--7--3--3--3--3--3--3--3--3-|
Eb|-------------------------------------------------|

   GTR I, II
eb|-------------------------------------------------|
Bb|-------------------------------------------------|
Gb|--7--7--7--7--7--7--7--7-------------------------|
Db|--7--7--7--7--7--7--7--7--2--2--2--2--2--2--2--2-|
Ab|--5--5--5--5--5--5--5--5--2--2--2--2--2--2--2--2-|
Eb|--------------------------0--0--0--0--0--0--0--0-|

   GTR I, II
eb|-------------------------------------------------|
Bb|-------------------------------------------------|
Gb|-------------------------------------------------|
Db|--2--2--2--2--2--2--2--2--5--5--5--5--5--5--5--5-|
Ab|--2--2--2--2--2--2--2--2--5--5--5--5--5--5--5--5-|
Eb|--0--0--0--0--0--0--0--0--3--3--3--3--3--3--3--3-|

   GTR I, II
eb|-------------------------------------------------|
Bb|-------------------------------------------------|
Gb|--7--7--7--7--7--7--7--7--9--9--9--9--9--9--9--9-|
Db|--7--7--7--7--7--7--7--7--9--9--9--9--9--9--9--9-|
Ab|--5--5--5--5--5--5--5--5--7--7--7--7--7--7--7--7-|
Eb|-------------------------------------------------|

   GTR I, II
eb|-------------------------------------------------|
Bb|-------------------------------------------------|
Gb|--9--9--9--9--9--9--9--9--5--5--5--5--5--5--5--5-|
Db|--9--9--9--9--9--9--9--9--5--5--5--5--5--5--5--5-|
Ab|--7--7--7--7--7--7--7--7--3--3--3--3--3--3--3--3-|
Eb|-------------------------------------------------|

   GTR I, II
eb|-------------------------------------------------|
Bb|-------------------------------------------------|
Gb|--7--7--7--7--7--7--7--7-------------------------|
Db|--7--7--7--7--7--7--7--7--2----------------------|
Ab|--5--5--5--5--5--5--5--5--2----------------------|
Eb|--------------------------0----------------------|

   GTR I, II
eb|-------------------------------------------------|
Bb|-------------------------------------------------|
Gb|-------------------------------------------------|
Db|-------------------------------------------------|
Ab|-------------------------------------------------|
Eb|-------------------------------------------------|


| /  slide up
| \  slide down
| h  hammer-on
| p  pull-off
| ~  vibrato
| +  harmonic
| x  Mute note
===============================================================================

            
            
Suggest correction
Creating personal tab
Creating personal tab
You can edit any tab online and save it as your Personal.

You can edit, replace or remove any tab part or add personal notes – all changes will be seen only by you.

Personal tabs can be accessed anytime from any device, even offline.
Learn more »
Give kudos to tab author, rate the tab!
1 2 3 4 5
comments
print report bad tab
guest
You may want to rate the tab now too:
select rating
Wanna post a correction for this tab? Suggest correction