Oops, an error
Loading. Please wait.
We have Chord Pro version of Welcome To The Breakdown.
It's the closest thing you can get to the original song and it has interactive parts. Check out the tab »
×

Welcome To The Breakdown tab

version 1
version 1

Whole song

  • This tab only has the rhythm guitar in it.

Interactive

799 views 21 this week
1 commentread comment
1 2 3 4 5
x 4
add to favorites
×
Save as Personal and add changes to this tab that will be seen only by you. Learn more ›
×
You can save this tab as Personal to edit and correct it or add notes. All changes will be seen only by you. Learn more »
launch autoscroll
font size
0
reset
how to read this tab
guitar tuner
edit
Autoscroll
slow
fast
+/-
esc
set tempo
stop
About this tab version
This tab only has the rhythm guitar in it. Was this info helpful? Yes No
Artist: Rise Against
Song: Welcome to the Breakdown
Album: Wolves (2017)
Eb Ab Db Gb Bb eb

[Intro]
eb|-----------------|
Bb|-----------------|
Gb|-7---7-7---7-7-7-|
Db|-7---7-7---7-7-7-|
Ab|-----------------|
Eb|-----------------|

eb|-----------------|-----------------|-----------------|-----------------|
Bb|-----------------|-----------------|-----------------|-----------------|
Gb|-9---9-9---9-9-9-|-9---9-9---9-9-9-|-9---9-9---9-9-9-|-7---7-7---7-7-7-|
Db|-9---9-9---9-9-9-|-9---9-9---9-9-9-|-9---9-9---9-9-9-|-7---7-7---7-7-7-|
Ab|-----------------|-----------------|-----------------|-----------------|
Eb|-----------------|-----------------|-----------------|-----------------| (x4)

[Verse 1]
eb|-----------------|-----------------|-----------------|-----------------|
Bb|-----------------|-----------------|-----------------|-----------------|
Gb|-9---9-9---9-9-9-|-9---9-9---9-9-9-|-9---9-9---9-9-9-|-7---7-7---7-7-7-|
Db|-9---9-9---9-9-9-|-9---9-9---9-9-9-|-9---9-9---9-9-9-|-7---7-7---7-7-7-|
Ab|-7---7-7---7-7-7-|-7---7-7---7-7-7-|-7---7-7---7-7-7-|-5---5-5---5-5-5-|
Eb|-----------------|-----------------|-----------------|-----------------| (x2)

eb|-----------------|-----------------|-----------------|-----------------|
Bb|-----------------|-----------------|-----------------|-----------------|
Gb|-----------------|-----------------|-----------------|-7---7-7---7-7-7-|
Db|-7---7-7---7-7-7-|-7---7-7---7-7-7-|-7---7-7---7-7-7-|-7---7-7---7-7-7-|
Ab|-7---7-7---7-7-7-|-7---7-7---7-7-7-|-7---7-7---7-7-7-|-5---5-5---5-5-5-|
Eb|-5---5-5---5-5-5-|-5---5-5---5-5-5-|-5---5-5---5-5-5-|-----------------|

eb|-----------------|-----------------|-----------------|-----------------|
Bb|-----------------|-----------------|-----------------|-----------------|
Gb|-9---9-9---9-9-9-|-9---9-9---9-9-9-|-9---9-9---9-9-9-|-7---7-7---7-7-7-|
Db|-9---9-9---9-9-9-|-9---9-9---9-9-9-|-9---9-9---9-9-9-|-7---7-7---7-7-7-|
Ab|-7---7-7---7-7-7-|-7---7-7---7-7-7-|-7---7-7---7-7-7-|-5---5-5---5-5-5-|
Eb|-----------------|-----------------|-----------------|-----------------|

eb|-----------------|-----------------|-----------------|-----------------|
Bb|-----------------|-----------------|-----------------|-----------------|
Gb|-9---9-9---9-9-9-|-9---9-9---9-9-9-|-9---9-9---9-9-9-|-7---7-7---7-7-7-|
Db|-9---9-9---9-9-9-|-9---9-9---9-9-9-|-9---9-9---9-9-9-|-7---7-7---7-7-7-|
Ab|-7---7-7---7-7-7-|-7---7-7---7-7-7-|-7---7-7---7-7-7-|-5---5-5---5-5-5-|
Eb|-----------------|-----------------|-----------------|-----------------| (x2)

eb|-----------------|-----------------|-----------------|-----------------|
Bb|-----------------|-----------------|-----------------|-----------------|
Gb|-----------------|-----------------|-----------------|-7---7-7---7-7-7-|
Db|-7---7-7---7-7-7-|-7---7-7---7-7-7-|-7---7-7---7-7-7-|-7---7-7---7-7-7-|
Ab|-7---7-7---7-7-7-|-7---7-7---7-7-7-|-7---7-7---7-7-7-|-5---5-5---5-5-5-|
Eb|-5---5-5---5-5-5-|-5---5-5---5-5-5-|-5---5-5---5-5-5-|-----------------|

eb|-----------------|-----------------|-----------------|-----------------|
Bb|-----------------|-----------------|-----------------|-----------------|
Gb|-9---9-9---9-9-9-|-9---9-9---9-9-9-|-9---9-9---9-9-9-|-9---9-9---9-9-9-|
Db|-9---9-9---9-9-9-|-9---9-9---9-9-9-|-9---9-9---9-9-9-|-9---9-9---9-9-9-|
Ab|-7---7-7---7-7-7-|-7---7-7---7-7-7-|-7---7-7---7-7-7-|-7---7-7---7-7-7-|
Eb|-----------------|-----------------|-----------------|-----------------|

[Pre-Chorus 1]
eb|-----------------|-----------------|-----------------|-----------------|
Bb|-----------------|-----------------|-----------------|-----------------|
Gb|-5---5-5---5-5-5-|-5---5---5---5---|-----------------|-----------------|
Db|-5---5-5---5-5-5-|-5---5---5---5---|-5---5-5---5-5-5-|-5---5---5---5---|
Ab|-3---3-3---3-3-3-|-3---3---3---3---|-5---5-5---5-5-5-|-5---5---5---5---|
Eb|-----------------|-----------------|-3---3-3---3-3-3-|-3---3---3---3---|

eb|-----------------|-----------------|-----------------|-----------------|
Bb|-----------------|-----------------|-----------------|-----------------|
Gb|-7---7-7---7-7-7-|-7---7---7---7---|-----------------|-----------------|
Db|-7---7-7---7-7-7-|-7---7---7---7---|-7---7-7---7-7-7-|-7---7---7---7---|
Ab|-5---5-5---5-5-5-|-5---5---5---5---|-7---7-7---7-7-7-|-7---7---7---7---|
Eb|-----------------|-----------------|-5---5-5---5-5-5-|-5---5---5---5---|

eb|-----------------|-----------------|-----------------|-----------------|
Bb|-----------------|-----------------|-----------------|-----------------|
Gb|-5---5-5---5-5-5-|-5---5---5---5---|-----------------|-----------------|
Db|-5---5-5---5-5-5-|-5---5---5---5---|-5---5-5---5-5-5-|-5---5---5---5---|
Ab|-3---3-3---3-3-3-|-3---3---3---3---|-5---5-5---5-5-5-|-5---5---5---5---|
Eb|-----------------|-----------------|-3---3-3---3-3-3-|-3---3---3---3---|

eb|-----------------|-----------------|-----------------|-----------------|
Bb|-----------------|-----------------|-----------------|-----------------|
Gb|-7---7---7---7---|-7---7---7---7---|-7---7---7---7---|-7---7---7---7---|
Db|-7---7---7---7---|-7---7---7---7---|-7---7---7---7---|-7---7---7---7---|
Ab|-5---5---5---5---|-5---5---5---5---|-5---5---5---5---|-5---5---5---5---|
Eb|-----------------|-----------------|-----------------|-----------------|

[Chorus 1]
eb|-----------------|-------------------|
Bb|-----------------|-------------------|
Gb|-9---9-9---------|-7-7-7-------------|
Db|-9---9-9-5---5-5-|-7-7-7---7---7-7-7-|
Ab|-7---7-7-5---5-5-|-5-5-5---7---7-7-7-|
Eb|---------3---3-3-|---------5---5-5-5-| (x3)

eb|-----------------|-----------------|-----------------|-----------------|
Bb|-----------------|-----------------|-----------------|-----------------|
Gb|-5---5---5---5---|-5---5---5---5---|-7---7---7---7---|-7---7---7---7---|
Db|-5---5---5---5---|-5---5---5---5---|-7---7---7---7---|-7---7---7---7---|
Ab|-3---3---3---3---|-3---3---3---3---|-5---5---5---5---|-5---5---5---5---|
Eb|-----------------|-----------------|-----------------|-----------------|

[Post-Chorus]
eb|-----------------|-----------------|-----------------|-----------------|
Bb|-----------------|-----------------|-----------------|-----------------|
Gb|-9---------------|-----------------|-----------------|-7---7-7---7-7-7-|
Db|-9---------------|-----------------|-----------------|-7---7-7---7-7-7-|
Ab|-7---------------|-----------------|-----------------|-5---5-5---5-5-5-|
Eb|-----------------|-----------------|-----------------|-----------------| (x2)

[Verse 2]
eb|-----------------|-----------------|-----------------|-----------------|
Bb|-----------------|-----------------|-----------------|-----------------|
Gb|-9---------------|-----------------|-----------------|-----------------|
Db|-9---------------|-----------------|-----------------|-2---------------|
Ab|-7---------------|-----------------|-----------------|-2---------------|
Eb|-----------------|-----------------|-----------------|-0---------------|

eb|-7*--------------|-----------------|-----------------|-----------------|
Bb|-7*--------------|-----------------|-----------------|-----------------|
Gb|-7*--------------|-----------------|-----------------|-7---7-7---7-7-7-|
Db|-----------------|-----------------|-----------------|-7---7-7---7-7-7-|
Ab|-----------------|-----------------|-----------------|-5---5-5---5-5-5-|
Eb|-----------------|-----------------|-----------------|-----------------|

eb|-----------------|-----------------|-----------------|-----------------|
Bb|-----------------|-----------------|-----------------|-----------------|
Gb|-----------------|-----------------|-----------------|-7---7-7---7-7-7-|
Db|-7---7-7---7-7-7-|-7---7-7---7-7-7-|-7---7-7---7-7-7-|-7---7-7---7-7-7-|
Ab|-7---7-7---7-7-7-|-7---7-7---7-7-7-|-7---7-7---7-7-7-|-5---5-5---5-5-5-|
Eb|-5---5-5---5-5-5-|-5---5-5---5-5-5-|-5---5-5---5-5-5-|-----------------|
    .   . .   . . .   .   . .   . . .   .   . .   . . .  

eb|-----------------|-----------------|-----------------|-----------------|
Bb|-----------------|-----------------|-----------------|-----------------|
Gb|-9---9-9---9-9-9-|-9---9-9---9-9-9-|-9---9-9---9-9-9-|-9---9-9---9-9-9-|
Db|-9---9-9---9-9-9-|-9---9-9---9-9-9-|-9---9-9---9-9-9-|-9---9-9---9-9-9-|
Ab|-7---7-7---7-7-7-|-7---7-7---7-7-7-|-7---7-7---7-7-7-|-7---7-7---7-7-7-|
Eb|-----------------|-----------------|-----------------|-----------------|

[Pre-Chorus 2]
eb|-----------------|-----------------|-----------------|-----------------|
Bb|-----------------|-----------------|-----------------|-----------------|
Gb|-5---5-5---5-5-5-|-5---5---5---5---|-----------------|-----------------|
Db|-5---5-5---5-5-5-|-5---5---5---5---|-5---5-5---5-5-5-|-5---5---5---5---|
Ab|-3---3-3---3-3-3-|-3---3---3---3---|-5---5-5---5-5-5-|-5---5---5---5---|
Eb|-----------------|-----------------|-3---3-3---3-3-3-|-3---3---3---3---|

eb|-----------------|-----------------|-----------------|-----------------|
Bb|-----------------|-----------------|-----------------|-----------------|
Gb|-7---7-7---7-7-7-|-7---7---7---7---|-----------------|-----------------|
Db|-7---7-7---7-7-7-|-7---7---7---7---|-7---7-7---7-7-7-|-7---7---7---7---|
Ab|-5---5-5---5-5-5-|-5---5---5---5---|-7---7-7---7-7-7-|-7---7---7---7---|
Eb|-----------------|-----------------|-5---5-5---5-5-5-|-5---5---5---5---|

eb|-----------------|-----------------|-----------------|-----------------|
Bb|-----------------|-----------------|-----------------|-----------------|
Gb|-5---5-5---5-5-5-|-5---5---5---5---|-----------------|-----------------|
Db|-5---5-5---5-5-5-|-5---5---5---5---|-5---5-5---5-5-5-|-5---5---5---5---|
Ab|-3---3-3---3-3-3-|-3---3---3---3---|-5---5-5---5-5-5-|-5---5---5---5---|
Eb|-----------------|-----------------|-3---3-3---3-3-3-|-3---3---3---3---|

eb|-----------------|-----------------|-----------------|-----------------|
Bb|-----------------|-----------------|-----------------|-----------------|
Gb|-7---7---7---7---|-7---7---7---7---|-7---7---7---7---|-7---7---7---7---|
Db|-7---7---7---7---|-7---7---7---7---|-7---7---7---7---|-7---7---7---7---|
Ab|-5---5---5---5---|-5---5---5---5---|-5---5---5---5---|-5---5---5---5---|
Eb|-----------------|-----------------|-----------------|-----------------|

[Chorus 2]
eb|-----------------|-------------------|
Bb|-----------------|-------------------|
Gb|-9---9-9---------|-7-7-7-------------|
Db|-9---9-9-5---5-5-|-7-7-7---7---7-7-7-|
Ab|-7---7-7-5---5-5-|-5-5-5---7---7-7-7-|
Eb|---------3---3-3-|---------5---5-5-5-| (x3)

eb|-----------------|-----------------|-----------------|-----------------|
Bb|-----------------|-----------------|-----------------|-----------------|
Gb|-5---5---5---5---|-5---5---5---5---|-7---7---7---7---|-7---7---7---7---|
Db|-5---5---5---5---|-5---5---5---5---|-7---7---7---7---|-7---7---7---7---|
Ab|-3---3---3---3---|-3---3---3---3---|-5---5---5---5---|-5---5---5---5---|
Eb|-----------------|-----------------|-----------------|-----------------| (x2)

[Bridge]
eb|---------|
Bb|---8-7-8-|
Gb|-9-------|
Db|---------|
Ab|---------|
Eb|---------| (x4)

eb|-----------------|-----------------|-----------------|-----------------|
Bb|-----------------|-----------------|-----------------|-----------------|
Gb|-----------------|-----------------|-----------------|-----------------|
Db|-2---2-2---2-2-2-|-2---2-2---2-2-2-|-2---2-2---2-2-2-|-2---2-2---2-2-2-|
Ab|-2---2-2---2-2-2-|-2---2-2---2-2-2-|-2---2-2---2-2-2-|-2---2-2---2-2-2-|
Eb|-0---0-0---0-0-0-|-0---0-0---0-0-0-|-0---0-0---0-0-0-|-0---0-0---0-0-0-|

eb|---------|
Bb|---8-7-8-|
Gb|-9-------|
Db|---------|
Ab|---------|
Eb|---------| (x8)

eb|-----------------|-----------------|-----------------|-----------------|
Bb|-----------------|-----------------|-----------------|-----------------|
Gb|-----------------|-----------------|-----------------|-----------------|
Db|-2---2-2---2-2-2-|-2---2-2---2-2-2-|-5---5-5---5-5-5-|-5---5-5---5-5-5-|
Ab|-2---2-2---2-2-2-|-2---2-2---2-2-2-|-5---5-5---5-5-5-|-5---5-5---5-5-5-|
Eb|-0---0-0---0-0-0-|-0---0-0---0-0-0-|-3---3-3---3-3-3-|-3---3-3---3-3-3-|

eb|-----------------|-----------------|-----------------|-----------------|
Bb|-----------------|-----------------|-----------------|-----------------|
Gb|-----------------|-----------------|-5---5-5---5-5-5-|-7---7-7---7-7-7-|
Db|-7---7-7---7-7-7-|-7---7-7---7-7-7-|-5---5-5---5-5-5-|-7---7-7---7-7-7-|
Ab|-7---7-7---7-7-7-|-7---7-7---7-7-7-|-3---3-3---3-3-3-|-5---5-5---5-5-5-|
Eb|-5---5-5---5-5-5-|-5---5-5---5-5-5-|-----------------|-----------------| (x4)

[Pre-Chorus 3]
eb|-----------------|-----------------|-----------------|-----------------|
Bb|-----------------|-----------------|-----------------|-----------------|
Gb|-5---5---5---5---|-5---5---5---5---|-----------------|-----------------|
Db|-5---5---5---5---|-5---5---5---5---|-5---5---5---5---|-5---5---5---5---|
Ab|-3---3---3---3---|-3---3---3---3---|-5---5---5---5---|-5---5---5---5---|
Eb|-----------------|-----------------|-3---3---3---3---|-3---3---3---3---|
        .   .         .   .       .         .   .         .   .       .

eb|-----------------|-----------------|-----------------|-----------------|
Bb|-----------------|-----------------|-----------------|-----------------|
Gb|-7---7---7---7---|-7---7---7---7---|-----------------|-----------------|
Db|-7---7---7---7---|-7---7---7---7---|-7---7---7---7---|-7---7---7---7---|
Ab|-7---7---7---7---|-5---5---5---5---|-7---7---7---7---|-7---7---7---7---|
Eb|-----------------|-----------------|-5---5---5---5---|-5---5---5---5---|
        .   .         .   .       .         .   .         .   .       .

eb|-----------------|-----------------|-----------------|-----------------|
Bb|-----------------|-----------------|-----------------|-----------------|
Gb|-5---5---5---5---|-5---5---5---5---|-----------------|-----------------|
Db|-5---5---5---5---|-5---5---5---5---|-5---5---5---5---|-5---5---5---5---|
Ab|-3---3---3---3---|-3---3---3---3---|-5---5---5---5---|-5---5---5---5---|
Eb|-----------------|-----------------|-3---3---3---3---|-3---3---3---3---|
        .   .         .   .       .         .   .         .   .       .

eb|-----------------|-----------------|-----------------|-----------------|
Bb|-----------------|-----------------|-----------------|-----------------|
Gb|-7~--------------|-----------------|-----------------|-----------------|
Db|-7~--------------|-----------------|-----------------|-----------------|
Ab|-5~--------------|-----------------|-----------------|-----------------|
Eb|-----------------|-----------------|-----------------|-----------------|

[Chorus 2]
eb|-----------------|-------------------|
Bb|-----------------|-------------------|
Gb|-9---9-9---------|-7-7-7-------------|
Db|-9---9-9-5---5-5-|-7-7-7---7---7-7-7-|
Ab|-7---7-7-5---5-5-|-5-5-5---7---7-7-7-|
Eb|---------3---3-3-|---------5---5-5-5-| (x3)

eb|-----------------|-----------------|-----------------|-----------------|
Bb|-----------------|-----------------|-----------------|-----------------|
Gb|-5---5---5---5---|-5---5---5---5---|-7---7---7---7---|-7---7---7---7---|
Db|-5---5---5---5---|-5---5---5---5---|-7---7---7---7---|-7---7---7---7---|
Ab|-3---3---3---3---|-3---3---3---3---|-5---5---5---5---|-5---5---5---5---|
Eb|-----------------|-----------------|-----------------|-----------------| (x2)

eb|-----------------|-----------------|-----------------|-----------------|
Bb|-----------------|-----------------|-----------------|-----------------|
Gb|-5---5---5---5---|-5---5---5---5---|-7---7---7---7---|-7---7---7---7---|
Db|-5---5---5---5---|-5---5---5---5---|-7---7---7---7---|-7---7---7---7---|
Ab|-3---3---3---3---|-3---3---3---3---|-5---5---5---5---|-5---5---5---5---|
Eb|-----------------|-----------------|-----------------|-----------------| (x2)

eb|-----------------|
Bb|-----------------|
Gb|-9~--------------|
Db|-9~--------------|
Ab|-7~--------------|
Eb|-----------------|

[Outro]
eb|-----------------|-----------------|
Bb|-----------------|-----------------|
Gb|-7---7-7---7-7-7-|-9---------------|
Db|-7---7-7---7-7-7-|-9---------------|
Ab|-5---5-5---5-5-5-|-7---------------|
Eb|-----------------|-----------------|


***********************************

| *   Harmonic
| .   Palm Mute
| ~   Vibratro

***********************************

            
            
Suggest correction
Creating personal tab
Creating personal tab
You can edit any tab online and save it as your Personal.

You can edit, replace or remove any tab part or add personal notes – all changes will be seen only by you.

Personal tabs can be accessed anytime from any device, even offline.
Learn more »
comments
print report bad tab
1 comment total.
0 reply
Jyrkaderp 10 Jun 25, 2017 08:26 AM

In the bridge, its
eb|----------|
Bb|----------|
Gb|----------|
Db|-2--------|
Ab|-2--------|
Eb|-0--------|
instead of
eb|---------|
Bb|---------|
Gb|-9-------|
Db|-9-------|
Ab|-7-------|
Eb|---------|

guest
You may want to rate the tab now too:
select rating
Wanna post a correction for this tab? Suggest correction