Oops, an error
Loading. Please wait.

Whereabouts Unknown bass

version 1
version 1

Whole song

Interactive

3,017 views 1 this week
5 commentsread comments
1 2 3 4 5
x 7
add to favorites
×
Save as Personal and add changes to this tab that will be seen only by you. Learn more ›
×
You can save this tab as Personal to edit and correct it or add notes. All changes will be seen only by you. Learn more »
launch autoscroll
font size
0
reset
guitar tuner
edit
Autoscroll
slow
fast
+/-
esc
set tempo
stop
Author
Tune half a step down. D#  G#  C#  F#

Intro  x1 (Guitar goes first)
F|----------------|
C|----------------|
G|7~--5~--3~--2>--|
D|----------------|

Verse  x2
F|-------------------------------------|
C|-------------------------------------|
G|7---5----7---5--------------7---5----|
D|-00--0>---00--0>--333-3-5>---00--0>--|

Pre Chorus  x1
F|---------------------------------------------|
C|-----------------------------------7754-754--|
G|3-3-333-5-5-555---------5-2-3>--5>---------5-|
D|----------------0-0-000----------------------|

Chorus  x1
F|----------------------------|
C|----------------------------|
G|7>--5>--3>--7>--5>--3>------|
D|------------------------3>--|

Verse 2
F|---------------------------------------------|
C|---------------------------------------------|
G|7---5----7---5----7---5----7---5-------------|
D|-00--0>---00--0>---00--0>---00--0>--333-3-5>-|

F|------------------------------------|
C|------------------------------------|
G|7---5----7---5--------------7---5---|
D|-00--0>---00--0>--333-3-5>---00--0>-|

Pre Chorus  x1

Chorus  x1

Bass solo/bridge (friggin awesome bit)
F|----------------------------------------|
C|----------------------------------------|
G|----------------------------------------|  x6
D|0-10-12-0-10-12-0-10-12-0-10-12-0-10-12-|

F|------|
C|------|
G|------|
D|3>----|

F|----------------------------------------|
C|----------------------------------------|
G|----------------------------------------|  x6
D|0-10-12-0-10-12-0-10-12-0-10-12-0-10-12-|

F|------|
C|------|
G|------|
D|3>----|

F|----------------------------------------|
C|----------------------------------------|
G|----------------------------------------|  x1
D|0-10-12-0-10-12-0-10-12-0-10-12-0-10-12-|

F|------|
C|------|
G|------|
D|3>----|

F|----------------------------------------|
C|----------------------------------------|
G|----------------------------------------|  x1
D|0-10-12-0-10-12-0-10-12-0-10-12-0-10-12-|

F|--------|
C|--------|
G|--------|
D|3>--5>--|

Chorus  x4(let first two notes ring out, youll hear it)

Great song i reckon the best on the album.
Awesome friggin screaming reminds me of old rise against.
Please rate and comment. Cheers

            
            
Suggest correction
Creating personal tab
Creating personal tab
You can edit any tab online and save it as your Personal.

You can edit, replace or remove any tab part or add personal notes – all changes will be seen only by you.

Personal tabs can be accessed anytime from any device, even offline.
Learn more »
comments
print report bad tab
5 comments total. Showing first comments.
-1 reply
china_dweller 275 Nov 01, 2008 08:02 AM

perfect. sorry bout that whole only rating for busness

-1 reply
royson28 922 Nov 01, 2008 04:22 PM

Nah thats alrite. Thanks heaps.

-2 reply
gorgi 134 Nov 02, 2008 01:38 AM

It sucks dude. Rise Against are in D# not E and your time signature's not right

guest
You may want to rate the tab now too:
select rating
Wanna post a correction for this tab? Suggest correction