Oops, an error
Loading. Please wait.

Whereabouts Unknown bass

version 2
version 2

Whole song

Interactive

2,778 views 1 this week
5 commentsread comments
1 2 3 4 5
x 7
add to favorites
×
Save as Personal and add changes to this tab that will be seen only by you. Learn more ›
×
You can save this tab as Personal to edit and correct it or add notes. All changes will be seen only by you. Learn more »
launch autoscroll
font size
0
reset
guitar tuner
edit
Autoscroll
slow
fast
+/-
esc
set tempo
stop
Whereabouts Unknown
Rise Against
Joe Principe - Bass

INTRO

Gb|------------------|------------------|------------------|------------------|
Db|------------------|------------------|------------------|------------------|
Ab|------------------|------------------|------------------|-7----------------|
Eb|------------------|------------------|------------------|------------------|
    1 + 2 + 3 + 4 +    1 + 2 + 3 + 4 +    1 + 2 + 3 + 4 +    1 + 2 + 3 + 4 +    

Gb|------------------|------------------|------------------|------------------|------------------|
Db|------------------|------------------|------------------|------------------|------------------|
Ab|5-----------------|-3----------------|---------55555555-|------------------|------------------|
Eb|------------------|------------------|-33333333---------|------------------|------------------|
    1 + 2 + 3 + 4 +    1 + 2 + 3 + 4 +    1 + 2 + 3 + 4 +    1 + 2 + 3 + 4 +    1 + 2 + 3 + 4 +  

VERSE


Gb|------------------|------------------|------------------|------------------|
Db|------------------|------------------|------------------|------------------|
Ab|---------7-5------|------------------|---------7-5------|------------------|
Eb|-0---0---------0--|---0-0-0-0-0-0-0--|-0---0---------0--|---0-0-0-0-0-0-0--|
    1 + 2 + 3 + 4 +    1 + 2 + 3 + 4 +    1 + 2 + 3 + 4 +    1 + 2 + 3 + 4 +

Gb|------------------|------------------|------------------|------------------|
Db|------------------|------------------|------------------|------------------|
Ab|------------------|------------------|---------7-5------|-------0-2-0------|
Eb|-3---3---3-3---5--|---5-5-5-5-5-5-5--|-0---0---------0--|---0-0-------3-2--|
    1 + 2 + 3 + 4 +    1 + 2 + 3 + 4 +    1 + 2 + 3 + 4 +    1 + 2 + 3 + 4 +        

Gb|------------------|------------------|------------------|------------------|
Db|------------------|------------------|------------------|------------------|
Ab|---------7-5------|------------------|---------7-5------|------------------|
Eb|-0---0---------0--|---0-0-0-0-0-0-0--|-0---0---------0--|---0-0-0-0-0-0-0--|
    1 + 2 + 3 + 4 +    1 + 2 + 3 + 4 +    1 + 2 + 3 + 4 +    1 + 2 + 3 + 4 +

Gb|------------------|------------------|------------------|------------------|
Db|------------------|------------------|------------------|------------------|
Ab|------------------|------------------|---------7-5------|-------------2----|
Eb|-3---3---3-3---5--|---5-5-5-5-5-5-5--|-0---0---------0--|---0-0-0-3-5------|
    1 + 2 + 3 + 4 +    1 + 2 + 3 + 4 +    1 + 2 + 3 + 4 +    1 + 2 + 3 + 4 +        

PRE-CHORUS

Gb|------------------|------------------|------------------|------------------|
Db|------------------|------------------|------------------|------------------|
Ab|-3---3---3-3-3-5--|---5-5---5-5-5-5--|------------------|-5-------2--------|
Eb|------------------|------------------|-0-0-0-0-0-0-0-0--|------------------|
    1 + 2 + 3 + 4 +    1 + 2 + 3 + 4 +    1 + 2 + 3 + 4 +    1 + 2 + 3 + 4 +
        
Gb|------------------|------------------|------------------|--------------------------|
Db|------------------|------------------|------------------|--------------------------|
Ab|-3-3-3-3-3-3-3-3--|-3-3-3-3-3-3-3-3--|-5-5-5-5-5-5-5-5//|/12-12-12-12-10-10-9--9---|
Eb|------------------|------------------|------------------|--------------------------|
    1 + 2 + 3 + 4 +    1 + 2 + 3 + 4 +    1 + 2 + 3 + 4 +    1  +  2  +  3  +  4  + 

CHORUS

Gb|------------------|------------------|------------------|------------------|
Db|------------------|------------------|------------------|------------------|
Ab|------------------|------------------|-5---5-5-5-5-5-5--|-5-5-5-5-5-5-5-5--|
Eb|-0---0-0-0-0-0-0--|-0-0-0-0-0-0-0-0--|------------------|------------------|
    1 + 2 + 3 + 4 +    1 + 2 + 3 + 4 +    1 + 2 + 3 + 4 +    1 + 2 + 3 + 4 +

Gb|------------------|------------------|------------------|------------------|
Db|------------------|------------------|------------------|------------------|
Ab|-3-3-3-3-3-3-3-3--|-3-3-3-3-3-3-3-3--|------------------|------------------|
Eb|------------------|------------------|-0---0-0-0-0-0-0--|-0-0-0-0-0-0-0-0--|
    1 + 2 + 3 + 4 +    1 + 2 + 3 + 4 +    1 + 2 + 3 + 4 +    1 + 2 + 3 + 4 +

Gb|------------------|------------------|------------------|------------------|
Db|------------------|------------------|------------------|------------------|
Ab|-5---5-5-5-5-5-5--|-5-5-5-5-5-5-5-5--|-3-3-3-3-3-3-3-3--|-3-3-3-3-3-3-3-3--|
Eb|------------------|------------------|------------------|------------------|
    1 + 2 + 3 + 4 +    1 + 2 + 3 + 4 +    1 + 2 + 3 + 4 +    1 + 2 + 3 + 4 +

Gb|------------------|------------------|
Db|------------------|------------------|
Ab|------------------|-5-5-5-5-5-5-5-5--|
Eb|-3-3-3-3-3-3-3-3--|------------------|
    1 + 2 + 3 + 4 +    1 + 2 + 3 + 4 +   

INTERLUDE

Gb|------------------|------------------|------------------|------------------|
Db|------------------|------------------|------------------|------------------|
Ab|-----------5------|------------------|---------7-5------|------------------|
Eb|-0-0-0---------0--|---0-0-0-0-0-0-0--|-0-0-0---------0--|---0-0-0-0-0-0-0--|
    1 + 2 + 3 + 4 +    1 + 2 + 3 + 4 +    1 + 2 + 3 + 4 +    1 + 2 + 3 + 4 +



VERSE


Gb|------------------|------------------|------------------|------------------|
Db|------------------|------------------|------------------|------------------|
Ab|---------7-5------|------------------|---------7-5------|------------------|
Eb|-0-0-0---------0--|---0-0-0-0-0-0-0--|-0-0-0---------0--|---0-0-0-0-0-0-0--|
    1 + 2 + 3 + 4 +    1 + 2 + 3 + 4 +    1 + 2 + 3 + 4 +    1 + 2 + 3 + 4 +

Gb|------------------|------------------|------------------|------------------|
Db|------------------|------------------|------------------|------------------|
Ab|------------------|------------------|---------7-5------|-----7---5--7/10--|
Eb|-3-3-3---3-3---5--|---5-5-5-5-5-5-5--|-0-0-0---------0--|---0---0----------|
    1 + 2 + 3 + 4 +    1 + 2 + 3 + 4 +    1 + 2 + 3 + 4 +    1 + 2 + 3 + 4 +        

Gb|------------------|------------------|------------------|------------------|
Db|------------------|------------------|------------------|------------------|
Ab|---------7-5------|------------------|---------7-5------|------------------|
Eb|-0---0---------0--|---0-0-0-0-0-0-0--|-0---0---------0--|---0-0-0-0-0-0-0--|
    1 + 2 + 3 + 4 +    1 + 2 + 3 + 4 +    1 + 2 + 3 + 4 +    1 + 2 + 3 + 4 +

Gb|------------------|------------------|------------------|------------------|
Db|------------------|------------------|------------------|------------------|
Ab|------------------|------------------|---------7-5------|-------------2----|
Eb|-3---3---3-3---5--|---5-5-5-5-5-5-5--|-0---0---------0--|---0-0-0-3-5------|
    1 + 2 + 3 + 4 +    1 + 2 + 3 + 4 +    1 + 2 + 3 + 4 +    1 + 2 + 3 + 4 +    

PRE-CHORUS

Gb|------------------|------------------|------------------|------------------|
Db|------------------|------------------|------------------|------------------|
Ab|-3---3---3-3-3-5--|---5-5---5-5-5-5--|------------------|-5-------2--------|
Eb|------------------|------------------|-0-0-0-0-0-0-0-0--|------------------|
    1 + 2 + 3 + 4 +    1 + 2 + 3 + 4 +    1 + 2 + 3 + 4 +    1 + 2 + 3 + 4 +
        
Gb|------------------|------------------|------------------|--------------------------|
Db|------------------|------------------|------------------|--------------------------|
Ab|-3-3-3-3-3-3-3-3--|-3-3-3-3-3-3-3-3--|-5-5-5-5-5-5-5-5//|/12-12-12-12-10-10-9--9---|
Eb|------------------|------------------|------------------|--------------------------|
    1 + 2 + 3 + 4 +    1 + 2 + 3 + 4 +    1 + 2 + 3 + 4 +    1  +  2  +  3  +  4  + 

CHORUS

Gb|------------------|------------------|------------------|------------------|
Db|------------------|------------------|------------------|------------------|
Ab|------------------|------------------|-5---5-5-5-5-5-5--|-5-5-5-5-5-5-5-5--|
Eb|-0---0-0-0-0-0-0--|-0-0-0-0-0-0-0-0--|------------------|------------------|
    1 + 2 + 3 + 4 +    1 + 2 + 3 + 4 +    1 + 2 + 3 + 4 +    1 + 2 + 3 + 4 +

Gb|------------------|------------------|------------------|------------------|
Db|------------------|------------------|------------------|------------------|
Ab|-3-3-3-3-3-3-3-3--|-3-3-3-3-3-3-3-3--|------------------|------------------|
Eb|------------------|------------------|-0---0-0-0-0-0-0--|-0-0-0-0-0-0-0-0--|
    1 + 2 + 3 + 4 +    1 + 2 + 3 + 4 +    1 + 2 + 3 + 4 +    1 + 2 + 3 + 4 +

Gb|------------------|------------------|------------------|------------------|
Db|------------------|------------------|------------------|------------------|
Ab|-5---5-5-5-5-5-5--|-5-5-5-5-5-5-5-5--|-3-3-3-3-3-3-3-3--|-3-3-3-3-3-3-3-3--|
Eb|------------------|------------------|------------------|------------------|
    1 + 2 + 3 + 4 +    1 + 2 + 3 + 4 +    1 + 2 + 3 + 4 +    1 + 2 + 3 + 4 +

Gb|------------------|------------------|
Db|------------------|------------------|
Ab|------------------|-5-5-5-5-5-5-5-5--|
Eb|-3-3-3-3-3-3-3-3--|------------------|
    1 + 2 + 3 + 4 +    1 + 2 + 3 + 4 +   

INTERLUDE

Gb|--------------------------|--------------------------|
Db|--------------------------|--------------------------|
Ab|--------------------------|--------------------------|
Eb|-0--10-12-0--10-12-0--10--|-12-0--10-12-0--10-12-0---|
    1  +  2  +  3  +  4  +     1  +  2  +  3  +  4  +   

Gb|--------------------------|--------------------------|
Db|--------------------------|--------------------------|
Ab|--------------------------|--------------------------|
Eb|-0--10-12-0--10-12-0--10--|-12-0--10-12-0--10-12-0---|
    1  +  2  +  3  +  4  +     1  +  2  +  3  +  4  +

Gb|--------------------------|--------------------------|
Db|--------------------------|--------------------------|
Ab|--------------------------|--------------------------|
Eb|-0--10-12-0--10-12-0--10--|-12-0--10-12-0--10-12-0---|
    1  +  2  +  3  +  4  +     1  +  2  +  3  +  4  +

Gb|--------------------------|--------------------------|
Db|--------------------------|--------------------------|
Ab|--------------------------|--------------------------|
Eb|-0--10-12-0--10-12-0--10--|-12-0--10-12-0--10-12-0---|
    1  +  2  +  3  +  4  +     1  +  2  +  3  +  4  +

Gb|--------------------------|--------------------------|
Db|--------------------------|--------------------------|
Ab|--------------------------|--------------------------|
Eb|-0--10-12-0--10-12-0--10--|-12-0--10-12-0--10-12-0---|
    1  +  2  +  3  +  4  +     1  +  2  +  3  +  4  +

Gb|--------------------------|--------------------------|
Db|--------------------------|--------------------------|
Ab|--------------------------|--------------------------|
Eb|-0--10-12-0--10-12-0--10--|-12-0--10-12-0--10-12-0---|
    1  +  2  +  3  +  4  +     1  +  2  +  3  +  4  +        

Gb|--------------------------|--------------------------|
Db|--------------------------|--------------------------|
Ab|--------------------------|--------------------------|
Eb|-3-----3--3--3-----3------|-3-----3-----3--3--3------|
    1  +  2  +  3  +  4  +     1  +  2  +  3  +  4  +

Gb|--------------------------|--------------------------|
Db|--------------------------|--------------------------|
Ab|--------------------------|--------------------------|
Eb|-0--10-12-0--10-12-0--10--|-12-0--10-12-0--10-12-0---|
    1  +  2  +  3  +  4  +     1  +  2  +  3  +  4  +       

Gb|--------------------------|--------------------------|
Db|--------------------------|--------------------------|
Ab|--------------------------|--------------------------|
Eb|-0--10-12-0--10-12-0--10--|-12-0--10-12-0--10-12-0---|
    1  +  2  +  3  +  4  +     1  +  2  +  3  +  4  +       

Gb|------------------|------------------|------------------|------------------|
Db|------------------|------------------|------------------|------------------|
Ab|------------------|------------------|------------------|------------------|
Eb|-0---0-0-0-0-0-0--|-0-0-0-0-0-0-0-0--|-0---0-0-0-0-0-0--|-0-0-0-0-0-0-0-0--|
    1 + 2 + 3 + 4 +    1 + 2 + 3 + 4 +    1 + 2 + 3 + 4 +    1 + 2 + 3 + 4 +

Gb|------------------|------------------|------------------|------------------|
Db|------------------|------------------|------------------|------------------|
Ab|------------------|------------------|------------------|------------------|
Eb|-0---0-0-0-0-0-0--|-0-0-0-0-0-0-0-0--|-0---0-0-0-0-0-0--|-0-0-0-0-0-0-0-0--|
    1 + 2 + 3 + 4 +    1 + 2 + 3 + 4 +    1 + 2 + 3 + 4 +    1 + 2 + 3 + 4 +

Gb|--------------------------|--------------------------|
Db|--------------------------|--------------------------|
Ab|--------------------------|--------------------------|
Eb|-3-----3-----3--3--3--3---|----3--3-----3--3--3--3---|
    1  +  2  +  3  +  4  +     1  +  2  +  3  +  4  +

Gb|--------------------------|--------------------------|
Db|--------------------------|--------------------------|
Ab|--------------------------|--------------------------|
Eb|-0--10-12-0--10-12-0--10--|-12-0--10-12-0--10-12-0---|
    1  +  2  +  3  +  4  +     1  +  2  +  3  +  4  +       

Gb|--------------------------|--------------------------|
Db|--------------------------|--------------------------|
Ab|--------------------------|--------------------------|
Eb|-3-----3-----3-----3------|-3-----3-----3-----3------|
    1  +  2  +  3  +  4  +     1  +  2  +  3  +  4  +

Gb|--------------------------|--------------------------|
Db|--------------------------|--------------------------|
Ab|--------------------------|--------------------------|
Eb|-0--10-12-0--10-12-0--10--|-12-0--10-12-0--10-12-0---|
    1  +  2  +  3  +  4  +     1  +  2  +  3  +  4  +   

Gb|------------------|------------------|------------------|------------------|
Db|------------------|------------------|------------------|------------------|
Ab|------------------|------------------|-0-0-0-0-0-0-0-0--|-0-0-0-0-0-0-0-0--|
Eb|-3---3---3---3----|-3---3---3---3----|------------------|------------------|
    1 + 2 + 3 + 4 +    1 + 2 + 3 + 4 +    1 + 2 + 3 + 4 +    1 + 2 + 3 + 4 +
    
CHORUS

Gb|------------------|------------------|------------------|------------------|
Db|------------------|------------------|------------------|------------------|
Ab|------------------|------------------|-5----------------|------------------|
Eb|-0----------------|------------------|------------------|------------------|
    1 + 2 + 3 + 4 +    1 + 2 + 3 + 4 +    1 + 2 + 3 + 4 +    1 + 2 + 3 + 4 +

Gb|------------------|------------------|------------------|------------------|
Db|------------------|------------------|------------------|------------------|
Ab|-3-3-3-3-3-3-3-3--|-3-3-3-3-3-3-3-3--|------------------|------------------|
Eb|------------------|------------------|-0---0-0-0-0-0-0--|-0-0-0-0-0-0-0-0--|
    1 + 2 + 3 + 4 +    1 + 2 + 3 + 4 +    1 + 2 + 3 + 4 +    1 + 2 + 3 + 4 +

Gb|------------------|------------------|------------------|------------------|
Db|------------------|------------------|------------------|------------------|
Ab|-5---5-5-5-5-5-5--|-5-5-5-5-5-5-5-5--|-3-3-3-3-3-3-3-3--|-3-3-3-3-3-3-3-3--|
Eb|------------------|------------------|------------------|------------------|
    1 + 2 + 3 + 4 +    1 + 2 + 3 + 4 +    1 + 2 + 3 + 4 +    1 + 2 + 3 + 4 +

Gb|------------------|------------------|
Db|------------------|------------------|
Ab|------------------|-5-5-5-5-5-5-5-5--|
Eb|-3-3-3-3-3-3-3-3--|------------------|
    1 + 2 + 3 + 4 +    1 + 2 + 3 + 4 +   

OUTRO


Gb|------------------|------------------|------------------|------------------|
Db|------------------|------------------|------------------|------------------|
Ab|------------------|------------------|-5-5-5-5-5-5-5-5--|-5-5-5-5-5-5-5-5--|
Eb|-0-0-0-0-0-0-0-0--|-0-0-0-0-0-0-0-0--|------------------|------------------|
    1 + 2 + 3 + 4 +    1 + 2 + 3 + 4 +    1 + 2 + 3 + 4 +    1 + 2 + 3 + 4 +

Gb|------------------|------------------|------------------|------------------|
Db|------------------|------------------|------------------|------------------|
Ab|-3-3-3-3-3-3-3-3--|-3-3-3-3-3-3-3-3--|------------------|-5-5-5-5-5-5-5-5--|
Eb|------------------|------------------|-3-3-3-3-3-3-3-3--|------------------|
    1 + 2 + 3 + 4 +    1 + 2 + 3 + 4 +    1 + 2 + 3 + 4 +    1 + 2 + 3 + 4 +

Gb|------------------|------------------|------------------|------------------|
Db|------------------|------------------|------------------|------------------|
Ab|------------------|------------------|-5-5-5-5-5-5-5-5--|-5-5-5-5-5-5-5-5--|
Eb|-0-0-0-0-0-0-0-0--|-0-0-0-0-0-0-0-0--|------------------|------------------|
    1 + 2 + 3 + 4 +    1 + 2 + 3 + 4 +    1 + 2 + 3 + 4 +    1 + 2 + 3 + 4 +

Gb|------------------|------------------|------------------|------------------|
Db|------------------|------------------|------------------|------------------|
Ab|-3-3-3-3-3-3-3-3--|-3-3-3-3-3-3-3-3--|------------------|-5----------------|
Eb|------------------|------------------|-3----------------|------------------|
    1 + 2 + 3 + 4 +    1 + 2 + 3 + 4 +    1 + 2 + 3 + 4 +    1 + 2 + 3 + 4 +

Gb|------------------|------------------||
Db|------------------|------------------||
Ab|------------------|------------------||
Eb|-0----------------|------------------||
    1 + 2 + 3 + 4 +    1 + 2 + 3 + 4 +   

            
            
Suggest correction
Creating personal tab
Creating personal tab
You can edit any tab online and save it as your Personal.

You can edit, replace or remove any tab part or add personal notes – all changes will be seen only by you.

Personal tabs can be accessed anytime from any device, even offline.
Learn more »
comments
print report bad tab
5 comments total. Showing first comments.
0 reply
gorgi 134 Jan 05, 2009 01:38 PM

a

0 reply
Lemurs4mangos 1,616 Feb 25, 2009 04:14 PM

Well... gorgi, this tab is great... I don't know what yer prob is...
Anyways, te only thing I have to say is I think in the corus and outro instead of open E, I think its 7 on a, just an octave up, so its still the right note.

0 reply
RA188 10 Mar 10, 2009 02:27 PM

this does not sound the same as what i'm hearing when i listen to the song :/

guest
You may want to rate the tab now too:
select rating
Wanna post a correction for this tab? Suggest correction