Oops, an error
Loading. Please wait.

Whereabouts Unknown tab

version 4
version 4

Whole song

Interactive

52 views 1 this week
no commentswrite comment
1 2 3 4 5
2 more votes to show rating
add to favorites
×
Save as Personal and add changes to this tab that will be seen only by you. Learn more ›
×
You can save this tab as Personal to edit and correct it or add notes. All changes will be seen only by you. Learn more »
launch autoscroll
font size
0
reset
how to read this tab
guitar tuner
edit
Autoscroll
slow
fast
+/-
esc
set tempo
stop
About this tab version
Bare in mind the tab does not take into account that the drums go into double time at various times throughout the song. Notes in each bar are separated relative to note spacing. The main riff is mainly characterized by the palm-mutes. Was this info helpful? Yes No
Guitar I - Tim McIlrath
Guitar II - Zac Blair
Guitar III - Extra guitar

[Intro] Let notes ring out

    Guitar I (Clean)
eb|---------------------------------|---------------2-------0---------|
Bb|---------------7-----------------|-----------3-------3-------3-----|
Gb|-----------7-------7---9-----9---|-2-------2---2---------------2---|
Db|---------9---9-------------9-----|-0-------------------------------|
Ab|-7-------------------------------|---------------------------------|
Eb|-0-------------------------------|---------------------------------|
  |                                 |                                 |
  | Guitar II (Clean)               |                                 |
eb|---------------------------------|---------------2-------0---------|
Bb|---------------7-----------------|-------------------3-------------|
Gb|-------------------7---9---------|-2-------------------------------|
Db|---------------------------------|-0-------------------------------|
Ab|-7-------------------------------|---------------------------------|
Eb|-0-------------------------------|---------------------------------|

    Guitar I 
eb|---------------------------------|-----------------------------------|
Bb|-1-------0---------------0-------|---------------7-------------------|
Gb|-0-------0-------2-------0-------|-----------7-------7---9-----11\12-|
Db|-x-------x-------x-------x-------|---------9---9-------------9-------|
Ab|-3---3-3-3---3-3-3---3-3-3---3-3-|-7---------------------------------|
Eb|---------------------------------|-0---------------------------------|
  |                                 |                                   |
  | Guitar II                       |                                   |
eb|---------------------------------|-----------------------------------|
Bb|-1-------------------------------|---------------7-------------------|
Gb|-0---------------2-------0-------|-------------------7---9-----------|
Db|-x---------------x-------x-------|-----------------------------------|
Ab|-3---------------3-------3-------|-7---------------------------------|
Eb|---------------------------------|-0---------------------------------|

    Guitar I 
eb|-------------------------------------------------|---------------------------------|
Bb|-------------------------------------------------|-1-------0-----------------------|
Gb|-11-------11-11-9-----9-----11----------11-11----|-0---------------2-------0-------|
Db|-0--------0--0--0-----0-----0-----------0--0-----|-x-------------------------------|
Ab|-------------------------------------------------|-3---3-3-----3-3-----3-3-----3-3-|
Eb|-------------------------------------------------|---------------------------------|
  |                                                 |                                 |
  | Guitar II                                       |                                 |
eb|----------------------2-----------0--------------|---------------------------------|
Bb|----------------------------3--------------------|-1-------------------------------|
Gb|-2-----------------------------------------------|-0---------------2-------0-------|
Db|-0-----------------------------------------------|-x---------------x-------x-------|
Ab|-------------------------------------------------|-3---------------3-------3-------|
Eb|-------------------------------------------------|---------------------------------|

    Guitar I                         (Distortion)
eb|---------------------------------|---------------------------------|
Bb|---------------------------------|---------------------------------|
Gb|-4-------2-------0---------------|-------------------[Drum fill]---|
Db|-----0-0-----0-0-----0-0-4-------|---------------------------------|
Ab|---------------------------0-0-0-|-7-7-7-7-7-5-5-7-----------------|
Eb|---------------------------------|-0-0-0-0-0-0-0-0-----------------|
PM|                                 |   .   . .   .                   |
  | Guitar II                       |                                 |
eb|---------------------------------|---------------------------------|
Bb|---------------------------------|---------------------------------|
Gb|-4---------------2---------------|---------------------------------|
Db|-5---------------0---------------|---------------------------------|
Ab|---------------------------------|---------------------------------|
Eb|---------------------------------|---------------------------------|
  |                                 |                                 |
  | Guitar III (Distortion)         |                                 |
eb|---------------------------------|---------------------------------|
Bb|---------------------------------|---------------------------------|
Gb|-7-7-7-7-7-7-7-7-7-7-7-7-7-7-7-7-|---------------------------------|
Db|-7-7-7-7-7-7-7-7-7-7-7-7-7-7-7-7-|-2-------------------------------|
Ab|-5-5-5-5-5-5-5-5-5-5-5-5-5-5-5-5-|-2-------------------------------|
Eb|---------------------------------|-0-------------------------------|
PM| . . . . . . . . . .

[Verse 1]
    Guitar I (Distortion)
eb|---------------------------------|---------------------------------|
Bb|---------------------------------|---------------------------------|
Gb|---------------------------------|---------------------------------|
Db|---------------------------------|---------------------------------|
Ab|-7-7-7-7-7-5-5-7-7-7-7-7-7-7-7-5-|-7-7-7-7-7-5-5-7-7-7-7-7-7-7-7-7-|
Eb|-0-0-0-0-0-0-0-0-0-0-0-0-0-0-0-0-|-0-0-0-0-0-0-0-0-0-0-0-0-0-0-0-0-|
PM|   .   . .   .   . . . . . . .   |   .   . .   .   . . . . . . . . |
  | Guitar II (Distortion)          |                                 |
eb|---------------------------------|---------------------------------|
Bb|---------------------------------|---------------------------------|
Gb|---------------------------------|---------------------------------|
Db|-5-5-5-5-5-4-4-5-5-5-5-5-5-5-5-4-|-5-5-5-5-5-4-4-5-5-5-5-5-5-5-5-5-|
Ab|-7-7-7-7-7-5-5-7-7-7-7-7-7-7-7-5-|-7-7-7-7-7-5-5-7-7-7-7-7-7-7-7-7-|
Eb|---------------------------------|---------------------------------|
PM|   .   . .   .   . . . . . . .   |   .   . .   .   . . . . . . . . |

    Guitar I 
eb|---------------------------------|---------------------------------|
Bb|---------------------------------|---------------------------------|
Gb|---------------------------------|---------------------------------|
Db|---------------------------------|---------------------------------|
Ab|-5-5-5-5-5-5-5-7-7-7-7-7-7-7-7-7-|-7-7-7-7-7-5-5-7-7-7-7-7-7-7-7-7-|
Eb|-3-3-3-3-3-3-3-5-5-5-5-5-5-5-5-5-|-0-0-0-0-0-0-0-0-0-0-0-0-0-0-0-0-|
PM|   .   . .   .   . . . . . . . . |   .   . .   .   . . . . . . . . |
  | Guitar II                       |                                 |
eb|---------------------------------|---------------------------------|
Bb|---------------------------------|---------------------------------|
Gb|---------------------------------|---------------------------------|
Db|---------------------------------|-5-5-5-5-5-4-4-5-5-5-5-5-5-5-5-5-|
Ab|-5-5-5-5-5-5-5-7-7-7-7-7-7-7-7-7-|-7-7-7-7-7-5-5-7-7-7-7-7-7-7-7-7-|
Eb|-3-3-3-3-3-3-3-5-5-5-5-5-5-5-5-5-|---------------------------------|
PM|   .   . .   .   . . . . . . . . |   .   . .   .   . . . . . . . . |

    Guitar I (Distortion)
eb|---------------------------------|---------------------------------|
Bb|---------------------------------|---------------------------------|
Gb|---------------------------------|---------------------------------|
Db|---------------------------------|---------------------------------|
Ab|-7-7-7-7-7-5-5-7-7-7-7-7-7-7-7-5-|-7-7-7-7-7-5-5-7-7-7-7-7-7-7-7-7-|
Eb|-0-0-0-0-0-0-0-0-0-0-0-0-0-0-0-0-|-0-0-0-0-0-0-0-0-0-0-0-0-0-0-0-0-|
PM|   .   . .   .   . . . . . . .   |   .   . .   .   . . . . . . . . |
  | Guitar II (Distortion)          |                                 |
eb|---------------------------------|---------------------------------|
Bb|---------------------------------|---------------------------------|
Gb|---------------------------------|---------------------------------|
Db|-5-5-5-5-5-4-4-5-5-5-5-5-5-5-5-4-|-5-5-5-5-5-4-4-5-5-5-5-5-5-5-5-5-|
Ab|-7-7-7-7-7-5-5-7-7-7-7-7-7-7-7-5-|-7-7-7-7-7-5-5-7-7-7-7-7-7-7-7-7-|
Eb|---------------------------------|---------------------------------|
PM|   .   . .   .   . . . . . . .   |   .   . .   .   . . . . . . . . |

    Guitar I 
eb|---------------------------------|---------------------------------|
Bb|---------------------------------|---------------------------------|
Gb|---------------------------------|---------------------------------|
Db|---------------------------------|---------------------------------|
Ab|-5-5-5-5-5-5-5-7-7-7-7-7-7-7-7-7-|-7-7-7-7-7-5-5-7---7-7-7-7-7-7-7-|
Eb|-3-3-3-3-3-3-3-5-5-5-5-5-5-5-5-5-|-0-0-0-0-0-0-0-0---0-0-0-0-0-0-0-|
PM|   .   . .   .   . . . . . . . . |   .   . .   .                   |
  | Guitar II                       |                                 |
eb|---------------------------------|---------------------------------|
Bb|---------------------------------|---------------------------------|
Gb|---------------------------------|---------------------------------|
Db|---------------------------------|-5-5-5-5-5-4-4-5---5-5-5-5-5-5-5-|
Ab|-5-5-5-5-5-5-5-7-7-7-7-7-7-7-7-7-|-7-7-7-7-7-5-5-7---7-7-7-7-7-7-7-|
Eb|-3-3-3-3-3-3-3-5-5-5-5-5-5-5-5-5-|---------------------------------|
PM|   .   . .   .   . . . . . . . . |   .   . .   .                   |

[Pre-chorus 1]
    Guitar I 
eb|-------------------------------------------------|-------------------------------------------------|
Bb|-------------------------------------------------|-------------------------------------------------|
Gb|-5--5--5--5--5--5--5--7-----7--7--7--7--7--7--7--|-------------------------7-----------4-----------|
Db|-5--5--5--5--5--5--5--7-----7--7--7--7--7--7--7--|-2--2--2--2--2--2--2--2--7-----------4-----------|
Ab|-3--3--3--3--3--3--3--5-----5--5--5--5--5--5--5--|-2--2--2--2--2--2--2--2--5-----------2-----------|
Eb|-------------------------------------------------|-0--0--0--0--0--0--0--0--------------------------|
  |                                                 |                                                 |
  | Guitar II                                       |                                                 |
eb|-------------------------------------------------|-------------------------------------------------|
Bb|-------------------------------------------------|-------------------------------------------------|
Gb|-12-12-12-12-12-12-12-11----11-11-11-11-11-11-11-|-12-12-12-12-12-12-12-12-16----------14----------|
Db|-x--x--x--x--x--x--x--x-----x--x--x--x--x--x--x--|-x--x--x--x--x--x--x--x--x-----------x-----------|
Ab|-10-10-10-10-10-10-10-9-----9--9--9--9--9--9--9--|-10-10-10-10-10-10-10-10-14----------12----------|
Eb|-------------------------------------------------|-------------------------------------------------|

    Guitar I 
eb|-------------------------------------------------|-------------------------------------------------|
Bb|-------------------------------------------------|-------------------------------------------------|
Gb|-5--5--5--5--5--5--5--5--5--5--5--5--5--5--5--5--|-7--7--7--7--7--7--7--7 -7--7--7--7--7--7--7--7--|
Db|-5--5--5--5--5--5--5--5--5--5--5--5--5--5--5--5--|-7--7--7--7--7--7--7--7--7--7--7--7--7--7--7--7--|
Ab|-3--3--3--3--3--3--3--3--3--3--3--3--3--3--3--3--|-5--5--5--5--5--5--5--5--5--5--5--5--5--5--5--5--|
Eb|-------------------------------------------------|-------------------------------------------------|
  |                                                 |                                                 |
  | Guitar II                                       |                                                 |
eb|-------------------------------------------------|-------------------------------------------------|
Bb|-------------------------------------------------|-------------------------------------------------|
Gb|-12-12-12-12-12-12-12-12-12-12-12-12-12-12-12-12-|-14-14-14-14-14-14-14-14-14-14-14-14-14-14-14-14-|
Db|-x--x--x--x--x--x--x--x--x--x--x--x--x--x--x--x--|-x--x--x--x--x--x--x--x--x--x--x--x--x--x--x--x--|
Ab|-10-10-10-10-10-10-10-10-10-10-10-10-10-10-10-10-|-12-12-12-12-12-12-12-12-12-12-12-12-12-12-12-12-|
Eb|-------------------------------------------------|-------------------------------------------------|

[Chorus]
    Guitar I 
eb|---------------------------------|-------------------------------------------------|
Bb|---------------------------------|-------------------------------------------------|
Gb|---------------------------------|-7--7--7--7--7--7--7--7--7--7--7--7--7--7--7--7--|
Db|-2-2-2-2-2-2-2-2-2-2-2-2-2-2-2-2-|-7--7--7--7--7--7--7--7--7--7--7--7--7--7--7--7--|
Ab|-2-2-2-2-2-2-2-2-2-2-2-2-2-2-2-2-|-5--5--5--5--5--5--5--5--5--5--5--5--5--5--5--5--|
Eb|-0-0-0-0-0-0-0-0-0-0-0-0-0-0-0-0-|-------------------------------------------------|
  |                                 |                                                 |
  | Guitar II                       |                                                 |
eb|---------------------------------|-------------------------------------------------|
Bb|---------------------------------|-------------------------------------------------|
Gb|-9-9-9-9-9-9-9-9-9-9-9-9-9-9-9-9-|-11-11-11-11-11-11-11-11-7--7--7--7--7--7--7--7--|
Db|-x-x-x-x-x-x-x-x-x-x-x-x-x-x-x-x-|-x--x--x--x--x--x--x--x--x--x--x--x--x--x--x--x--|
Ab|-7-7-7-7-7-7-7-7-7-7-7-7-7-7-7-7-|-9--9--9--9--9--9--9--9--5--5--5--5--5--5--5--5--|
Eb|---------------------------------|-------------------------------------------------|

    Guitar I 
eb|-------------------------------------------------|---------------------------------|
Bb|-------------------------------------------------|---------------------------------|
Gb|-5--5--5--5--5--5--5--5--5--5--5--5--5--5--5--5--|---------------------------------|
Db|-5--5--5--5--5--5--5--5--5--5--5--5--5--5--5--5--|-2-2-2-2-2-2-2-2-2-2-2-2-2-2-2-2-|
Ab|-3--3--3--3--3--3--3--3--3--3--3--3--3--3--3--3--|-2-2-2-2-2-2-2-2-2-2-2-2-2-2-2-2-|
Eb|-------------------------------------------------|-0-0-0-0-0-0-0-0-0-0-0-0-0-0-0-0-|
  |                                                 |                                 |
  | Guitar II                                       |                                 |
eb|-------------------------------------------------|---------------------------------|
Bb|-------------------------------------------------|---------------------------------|
Gb|-17-17-17-17-16-16-16-16-14-14-14-14-12-12-12-12-|-9-9-9-9-9-9-9-9-9-9-9-9-9-9-9-9-|
Db|-x--x--x--x--x--x--x--x--x--x--x--x--x--x--x--x--|-x-x-x-x-x-x-x-x-x-x-x-x-x-x-x-x-|
Ab|-15-15-15-15-14-14-14-14-12-12-12-12-10-10-10-10-|-7-7-7-7-7-7-7-7-7-7-7-7-7-7-7-7-|
Eb|-------------------------------------------------|---------------------------------|

    Guitar I 
eb|-------------------------------------------------|-------------------------------------------------|
Bb|-------------------------------------------------|-------------------------------------------------|
Gb|-7--7--7--7--7--7--7--7--7--7--7--7--7--7--7--7--|-5--5--5--5--5--5--5--5--5--5--5--5--5--5--5--5--|
Db|-7--7--7--7--7--7--7--7--7--7--7--7--7--7--7--7--|-5--5--5--5--5--5--5--5--5--5--5--5--5--5--5--5--|
Ab|-5--5--5--5--5--5--5--5--5--5--5--5--5--5--5--5--|-3--3--3--3--3--3--3--3--3--3--3--3--3--3--3--3--|
Eb|-------------------------------------------------|-------------------------------------------------|
  |                                                 |                                                 |
  | Guitar II                                       |                                                 |
eb|-------------------------------------------------|-------------------------------------------------|
Bb|-------------------------------------------------|-------------------------------------------------|
Gb|-11-11-11-11-11-11-11-11-7--7--7--7--7--7--7--7--|-17-17-17-17-16-16-16-16-14-14-14-14-12-12-12-12-|
Db|-x--x--x--x--x--x--x--x--x--x--x--x--x--x--x--x--|-x--x--x--x--x--x--x--x--x--x--x--x--x--x--x--x--|
Ab|-9--9--9--9--9--9--9--9--5--5--5--5--5--5--5--5--|-15-15-15-15-14-14-14-14-12-12-12-12-10-10-10-10-|
Eb|-------------------------------------------------|-------------------------------------------------|

    Guitar I       
eb|-------------------------------------------------|
Bb|-------------------------------------------------|
Gb|-------------------------7--7--7--7--7--7--7--7--|
Db|-5--5--5--5--5--5--5--5--7--7--7--7--7--7--7--7--|
Ab|-5--5--5--5--5--5--5--5--5--5--5--5--5--5--5--5--|
Eb|-3--3--3--3--3--3--3--3--------------------------|
  |                                                 |
  | Guitar II                                       |
eb|-------------------------------------------------|
Bb|-------------------------------------------------|
Gb|-16-16-16-16-14-14-14-14-12-12-12-12-11-11-11-11-|
Db|-x--x--x--x--x--x--x--x--x--x--x--x--x--x--x--x--|
Ab|-14-14-14-14-12-12-12-12-10-10-10-10-9--9--9--9--|
Eb|-------------------------------------------------|

[Verse 2]
    Guitar I 
eb|---------------------------------|
Bb|---------------------------------|
Gb|---------------------------------|
Db|-2-------------------------------|
Ab|-2-------------------------------|   [Hold chord/octave for 6 bars, resolving to feedback.
Eb|-0-------------------------------|              vocals enter on the 3rd bar]
  |                                 |
  | Guitar II                       |
eb|---------------------------------|
Bb|---------------------------------|
Gb|-9-------------------------------|
Db|-x-------------------------------|
Ab|-7-------------------------------|
Eb|---------------------------------|

    Guitar I 
eb|---------------------------------|---------------------------------|
Bb|---------------------------------|---------------------------------|
Gb|---------------------------------|---------------------------------|
Db|---------------------------------|---------------------------------|
Ab|-7-7-7-7-7-5-5-7-7-7-7-7-7-7-7-5-|-7-7-7-7-7-5-5-7-7-7-7-7-7-7-7-7-|
Eb|-0-0-0-0-0-0-0-0-0-0-0-0-0-0-0-0-|-0-0-0-0-0-0-0-0-0-0-0-0-0-0-0-0-|
PM|   .   . .   .   . . . . . . .   |   .   . .   .   . . . . . . . . |
  | Guitar II                       |                                 |
eb|---------------------------------|---------------------------------|
Bb|---------------------------------|---------------------------------|
Gb|---------------------------------|---------------------------------|
Db|-5-5-5-5-5-4-4-5-5-5-5-5-5-5-5-4-|-5-5-5-5-5-4-4-5-5-5-5-5-5-5-5-5-|
Ab|-7-7-7-7-7-5-5-7-7-7-7-7-7-7-7-5-|-7-7-7-7-7-5-5-7-7-7-7-7-7-7-7-7-|
Eb|---------------------------------|---------------------------------|
PM|   .   . .   .   . . . . . . .   |   .   . .   .   . . . . . . . . |

    Guitar I 
eb|---------------------------------|---------------------------------|
Bb|---------------------------------|---------------------------------|
Gb|---------------------------------|---------------------------------|
Db|---------------------------------|---------------------------------|
Ab|-5-5-5-5-5-5-5-7-7-7-7-7-7-7-7-7-|-7-7-7-7-7-5-5-7---7-7-7-7-7-7-7-|
Eb|-3-3-3-3-3-3-3-5-5-5-5-5-5-5-5-5-|-0-0-0-0-0-0-0-0---0-0-0-0-0-0-0-|
PM|   .   . .   .   . . . . . . . . |   .   . .   .                   |
  | Guitar II                       |                                 |
eb|---------------------------------|---------------------------------|
Bb|---------------------------------|---------------------------------|
Gb|---------------------------------|---------------------------------|
Db|---------------------------------|-5-5-5-5-5-4-4-5---5-5-5-5-5-5-5-|
Ab|-5-5-5-5-5-5-5-7-7-7-7-7-7-7-7-7-|-7-7-7-7-7-5-5-7---7-7-7-7-7-7-7-|
Eb|-3-3-3-3-3-3-3-5-5-5-5-5-5-5-5-5-|---------------------------------|
PM|   .   . .   .   . . . . . . . . |   .   . .   .                   |

[Pre-chorus 1]
    Guitar I 
eb|-------------------------------------------------|-------------------------------------------------|
Bb|-------------------------------------------------|-------------------------------------------------|
Gb|-5--5--5--5--5--5--5--7-----7--7--7--7--7--7--7--|-------------------------7-----------4-----------|
Db|-5--5--5--5--5--5--5--7-----7--7--7--7--7--7--7--|-2--2--2--2--2--2--2--2--7-----------4-----------|
Ab|-3--3--3--3--3--3--3--5-----5--5--5--5--5--5--5--|-2--2--2--2--2--2--2--2--5-----------2-----------|
Eb|-------------------------------------------------|-0--0--0--0--0--0--0--0--------------------------|
  |                                                 |                                                 |
  | Guitar II                                       |                                                 |
eb|-------------------------------------------------|-------------------------------------------------|
Bb|-------------------------------------------------|-------------------------------------------------|
Gb|-12-12-12-12-12-12-12-11----11-11-11-11-11-11-11-|-12-12-12-12-12-12-12-12-16----------14----------|
Db|-x--x--x--x--x--x--x--x-----x--x--x--x--x--x--x--|-x--x--x--x--x--x--x--x--x-----------x-----------|
Ab|-10-10-10-10-10-10-10-9-----9--9--9--9--9--9--9--|-10-10-10-10-10-10-10-10-14----------12----------|
Eb|-------------------------------------------------|-------------------------------------------------|

    Guitar I 
eb|-------------------------------------------------|-------------------------------------------------|
Bb|-------------------------------------------------|-------------------------------------------------|
Gb|-5--5--5--5--5--5--5--5--5--5--5--5--5--5--5--5--|-7--7--7--7--7--7--7--7 -7--7--7--7--7--7--7--7--|
Db|-5--5--5--5--5--5--5--5--5--5--5--5--5--5--5--5--|-7--7--7--7--7--7--7--7--7--7--7--7--7--7--7--7--|
Ab|-3--3--3--3--3--3--3--3--3--3--3--3--3--3--3--3--|-5--5--5--5--5--5--5--5--5--5--5--5--5--5--5--5--|
Eb|-------------------------------------------------|-------------------------------------------------|
  |                                                 |                                                 |
  | Guitar II                                       |                                                 |
eb|-------------------------------------------------|-------------------------------------------------|
Bb|-------------------------------------------------|-------------------------------------------------|
Gb|-12-12-12-12-12-12-12-12-12-12-12-12-12-12-12-12-|-14-14-14-14-14-14-14-14-14-14-14-14-14-14-14-14-|
Db|-x--x--x--x--x--x--x--x--x--x--x--x--x--x--x--x--|-x--x--x--x--x--x--x--x--x--x--x--x--x--x--x--x--|
Ab|-10-10-10-10-10-10-10-10-10-10-10-10-10-10-10-10-|-12-12-12-12-12-12-12-12-12-12-12-12-12-12-12-12-|
Eb|-------------------------------------------------|-------------------------------------------------|

[Chorus]
    Guitar I 
eb|---------------------------------|-------------------------------------------------|
Bb|---------------------------------|-------------------------------------------------|
Gb|---------------------------------|-7--7--7--7--7--7--7--7--7--7--7--7--7--7--7--7--|
Db|-2-2-2-2-2-2-2-2-2-2-2-2-2-2-2-2-|-7--7--7--7--7--7--7--7--7--7--7--7--7--7--7--7--|
Ab|-2-2-2-2-2-2-2-2-2-2-2-2-2-2-2-2-|-5--5--5--5--5--5--5--5--5--5--5--5--5--5--5--5--|
Eb|-0-0-0-0-0-0-0-0-0-0-0-0-0-0-0-0-|-------------------------------------------------|
  |                                 |                                                 |
  | Guitar II                       |                                                 |
eb|---------------------------------|-------------------------------------------------|
Bb|---------------------------------|-------------------------------------------------|
Gb|-9-9-9-9-9-9-9-9-9-9-9-9-9-9-9-9-|-11-11-11-11-11-11-11-11-7--7--7--7--7--7--7--7--|
Db|-x-x-x-x-x-x-x-x-x-x-x-x-x-x-x-x-|-x--x--x--x--x--x--x--x--x--x--x--x--x--x--x--x--|
Ab|-7-7-7-7-7-7-7-7-7-7-7-7-7-7-7-7-|-9--9--9--9--9--9--9--9--5--5--5--5--5--5--5--5--|
Eb|---------------------------------|-------------------------------------------------|

    Guitar I 
eb|-------------------------------------------------|---------------------------------|
Bb|-------------------------------------------------|---------------------------------|
Gb|-5--5--5--5--5--5--5--5--5--5--5--5--5--5--5--5--|---------------------------------|
Db|-5--5--5--5--5--5--5--5--5--5--5--5--5--5--5--5--|-2-2-2-2-2-2-2-2-2-2-2-2-2-2-2-2-|
Ab|-3--3--3--3--3--3--3--3--3--3--3--3--3--3--3--3--|-2-2-2-2-2-2-2-2-2-2-2-2-2-2-2-2-|
Eb|-------------------------------------------------|-0-0-0-0-0-0-0-0-0-0-0-0-0-0-0-0-|
  |                                                 |                                 |
  | Guitar II                                       |                                 |
eb|-------------------------------------------------|---------------------------------|
Bb|-------------------------------------------------|---------------------------------|
Gb|-17-17-17-17-16-16-16-16-14-14-14-14-12-12-12-12-|-9-9-9-9-9-9-9-9-9-9-9-9-9-9-9-9-|
Db|-x--x--x--x--x--x--x--x--x--x--x--x--x--x--x--x--|-x-x-x-x-x-x-x-x-x-x-x-x-x-x-x-x-|
Ab|-15-15-15-15-14-14-14-14-12-12-12-12-10-10-10-10-|-7-7-7-7-7-7-7-7-7-7-7-7-7-7-7-7-|
Eb|-------------------------------------------------|---------------------------------|

    Guitar I 
eb|-------------------------------------------------|-------------------------------------------------|
Bb|-------------------------------------------------|-------------------------------------------------|
Gb|-7--7--7--7--7--7--7--7--7--7--7--7--7--7--7--7--|-5--5--5--5--5--5--5--5--5--5--5--5--5--5--5--5--|
Db|-7--7--7--7--7--7--7--7--7--7--7--7--7--7--7--7--|-5--5--5--5--5--5--5--5--5--5--5--5--5--5--5--5--|
Ab|-5--5--5--5--5--5--5--5--5--5--5--5--5--5--5--5--|-3--3--3--3--3--3--3--3--3--3--3--3--3--3--3--3--|
Eb|-------------------------------------------------|-------------------------------------------------|
  |                                                 |                                                 |
  | Guitar II                                       |                                                 |
eb|-------------------------------------------------|-------------------------------------------------|
Bb|-------------------------------------------------|-------------------------------------------------|
Gb|-11-11-11-11-11-11-11-11-7--7--7--7--7--7--7--7--|-17-17-17-17-16-16-16-16-14-14-14-14-12-12-12-12-|
Db|-x--x--x--x--x--x--x--x--x--x--x--x--x--x--x--x--|-x--x--x--x--x--x--x--x--x--x--x--x--x--x--x--x--|
Ab|-9--9--9--9--9--9--9--9--5--5--5--5--5--5--5--5--|-15-15-15-15-14-14-14-14-12-12-12-12-10-10-10-10-|
Eb|-------------------------------------------------|-------------------------------------------------|

    Guitar I       
eb|-------------------------------------------------|
Bb|-------------------------------------------------|
Gb|-------------------------7--7--7--7--7--7--7--7--|
Db|-5--5--5--5--5--5--5--5--7--7--7--7--7--7--7--7--|
Ab|-5--5--5--5--5--5--5--5--5--5--5--5--5--5--5--5--|
Eb|-3--3--3--3--3--3--3--3--------------------------|
  |                                                 |
  | Guitar II                                       |
eb|-------------------------------------------------|
Bb|-------------------------------------------------|
Gb|-16-16-16-16-14-14-14-14-12-12-12-12-11-11-11-11-|
Db|-x--x--x--x--x--x--x--x--x--x--x--x--x--x--x--x--|
Ab|-14-14-14-14-12-12-12-12-10-10-10-10-9--9--9--9--|
Eb|-------------------------------------------------|

[Bridge]
    Guitar I 
eb|---------------------------------|---------------------------------|
Bb|---------------------------------|---------------------------------|
Gb|---------------------------[Bass riff]-----------------------------|
Db|-2-------------------------------|---------------------------------|
Ab|-2-------------------------------|---------------------------------|
Eb|-0-------------------------------|---------------------------------|
  |                                 |                                 |
  | Guitar II                       |                                 |
eb|---------------------------------|---------------------------------|
Bb|---------------------------------|---------------------------------|
Gb|-9-------------------------------|---------------------------------|
Db|-x-------------------------------|---------------------------------|
Ab|-7-------------------------------|---------------------------------|
Eb|---------------------------------|---------------------------------|

    Guitar I (Clesn)
eb|---------------------------------|---------------------------------|
Bb|---------------------------------|---------------------------------|
Gb|-12------------------------------|-11------------------------------|
Db|-x-------------------------------|-x-------------------------------|
Ab|-10------------------------------|-9-------------------------------|
Eb|---------------------------------|---------------------------------|
  |                                 |                                 |
  | Guitar II                       |                                 |
eb|---------------------------------|---------------------------------|
Bb|---------------------------------|---------------------------------|
Gb|-------------------------[Guitar feedback]-------------------------|
Db|---------------------------------|---------------------------------|
Ab|---------------------------------|---------------------------------|
Eb|---------------------------------|---------------------------------|

    Guitar I 
eb|---------------------------------|---------------------------------|
Bb|---------------------------------|---------------------------------|
Gb|-7-------------------------------|-6-------------------------------|
Db|-x-------------------------------|-x-------------------------------|
Ab|-5-------------------------------|-4-------------------------------|
Eb|---------------------------------|---------------------------------|
  |                                 |                                 |
  | Guitar II                       |                                 |
eb|---------------------------------|---------------------------------|
Bb|---------------------------------|---------------------------------|
Gb|---------------------------------|---------------------------------|
Db|---------------------------------|---------------------------------|
Ab|---------------------------------|---------------------------------|
Eb|---------------------------------|---------------------------------|

    Guitar I (Distortion)
eb|-------------------------------------------------|-------------------------------------------------|
Bb|-------------------------------------------------|-------------------------------------------------|
Gb|-12-12-12-12-12-12-12-12-11-11-11-11-9--9--9--9--|-------------------------------------------------|
Db|-x--x--x--x--x--x--x--x--x--x--x--x--x--x--x--x--|-------------------------------------------------|
Ab|-10-10-10-10-10-10-10-10-9--9--9--9--7--7--7--7--|-------------------------------------------------|
Eb|-------------------------------------------------|-0--10-12-0--10-12-0--10-12-0--10-12-0--10-12-0--|
PM|                                                 | .  .  .  .  .  .  .  .  .  .  .  .  .  .  .  .  |
  | Guitar II                                       |                                                 |
eb|-------------------------------------------------|-------------------------------------------------|
Bb|-------------------------------------------------|-------------------------------------------------|
Gb|-------------------------------------------------|-------------------------------------------------|
Db|-5--5--5--5--5--5--5--5--5--5--5--5--5--5--5--5--|-------------------------------------------------|
Ab|-5--5--5--5--5--5--5--5--5--5--5--5--5--5--5--5--|-------------------------------------------------|
Eb|-3--3--3--3--3--3--3--3--3--3--3--3--3--3--3--3--|-0--10-12-0--10-12-0--10-12-0--10-12-0--10-12-0--|
PM|                                                 | .  .  .  .  .  .  .  .  .  .  .  .  .  .  .  .  |

    Guitar I 
eb|-------------------------------------------------|-------------------------------------------------|
Bb|-------------------------------------------------|-------------------------------------------------|
Gb|-------------------------------------------------|-12-12-12-12-12-12-12-12-12-12-12-12-12-12-12-12-|
Db|-------------------------------------------------|-x--x--x--x--x--x--x--x--x--x--x--x--x--x--x--x--|
Ab|-------------------------------------------------|-10-10-10-10-10-10-10-10-10-10-10-10-10-10-10-10-|
Eb|-0--10-12-0--10-12-0--10-12-0--10-12-0--10-12-0--|-------------------------------------------------|
PM| .  .  .  .  .  .  .  .  .  .  .  .  .  .  .  .  |                                                 |
  | Guitar II                                       |                                                 |
eb|-------------------------------------------------|-------------------------------------------------|
Bb|-------------------------------------------------|-------------------------------------------------|
Gb|-------------------------------------------------|-------------------------------------------------|
Db|-------------------------------------------------|-------------------------------------------------|
Ab|-------------------------------------------------|-------------------------------------------------|
Eb|-0--10-12-0--10-12-0--10-12-0--10-12-0--10-12-0--|-0--10-12-0--10-12-0--10-12-0--10-12-0--10-12-0--|
PM| .  .  .  .  .  .  .  .  .  .  .  .  .  .  .  .  | .  .  .  .  .  .  .  .  .  .  .  .  .  .     .  |

    Guitar I 
eb|-------------------------------------------------|-------------------------------------------------|
Bb|-------------------------------------------------|-------------------------------------------------|
Gb|-11-11-11-11-11-11-11-11-11-11-11-11-11-11-11-11-|-7--7--7--7--7--7--7--7--7--7--7--7--7--7--7--7--|
Db|-x--x--x--x--x--x--x--x--x--x--x--x--x--x--x--x--|-x--x--x--x--x--x--x--x--x--x--x--x--x--x--x--x--|
Ab|-9--9--9--9--9--9--9--9--9--9--9--9--9--9--9--9--|-5--5--5--5--5--5--5--5--5--5--5--5--5--5--5--5--|
Eb|-------------------------------------------------|-------------------------------------------------|
  |                                                 |                                                 |
  | Guitar II                                       |                                                 |
eb|-------------------------------------------------|-------------------------------------------------|
Bb|-------------------------------------------------|-------------------------------------------------|
Gb|-------------------------------------------------|-------------------------------------------------|
Db|-------------------------------------------------|-------------------------------------------------|
Ab|-------------------------------------------------|-------------------------------------------------|
Eb|-0--10-12-0--10-12-0--10-12-0--10-12-0--10-12-0--|-0--10-12-0--10-12-0--10-12-0--10-12-0--10-12-0--|
PM| .  .  .  .  .  .  .  .  .  .  .  .  .  .  .  .  | .  .  .  .  .  .  .  .  .  .  .  .  .  .  .  .  |

    Guitar I             |-Increasingly bend the 6-|          |-This part is not 100% correct-|
eb|-------------------------------------------------|-------------------------------------------------|
Bb|-------------------------------------------------|-------------------------------------------------|
Gb|-6--6--6--6--6--6--6--6--6--6--6--6--6--6--6--6--|-12-12-12-12-12-12-12-12-12-12-12-12-12-12-12-12-|
Db|-x--x--x--x--x--x--x--x--x--x--x--x--x--x--x--x--|-x--x--x--x--x--x--x--x--x--x--x--x--x--x--x--x--|
Ab|-4--4--4--4--4--4--4--4--4--4--4--4--4--4--4--4--|-10-10-10-10-10-10-10-10-10-10-10-10-10-10-10-10-|
Eb|-------------------------------------------------|-------------------------------------------------|
  |                                                 |                                                 |
  | Guitar II                                       |                                                 |
eb|-------------------------------------------------|-------------------------------------------------|
Bb|-------------------------------------------------|-------------------------------------------------|
Gb|-------------------------------------------------|-------------------------------------------------|
Db|-------------------------------------------------|-5--5--5--5--5--5--5--5--5--5--5--5--5--5--5--5--|
Ab|-------------------------------------------------|-5--5--5--5--5--5--5--5--5--5--5--5--5--5--5--5--|
Eb|-0--10-12-0--10-12-0--10-12-0--10-12-0--10-12-0--|-3--3--3--3--3--3--3--3--3--3--3--3--3--3--3--3--|
PM| .  .     .  .                                   |                                                 |

    Guitar I 
eb|-------------------------------------------------|-------------------------------------------------|
Bb|-------------------------------------------------|-------------------------------------------------|
Gb|-------------------------------------------------|-12-12-12-12-12-12-12-12-11-11-11-11-14-14-14-14-|
Db|-------------------------------------------------|-x--x--x--x--x--x--x--x--x--x--x--x--x--x--x--x--|
Ab|-------------------------------------------------|-10-10-10-10-10-10-10-10-9--9--9--9--12-12-12-12-|
Eb|-0--10-12-0--10-12-0--10-12-0--10-12-0--10-12-0--|-------------------------------------------------|
PM| .  .  .  .  .  .  .  .  .  .  .  .  .  .  .  .  |                                                 |
  | Guitar II                                       |                                                 |
eb|-------------------------------------------------|-------------------------------------------------|
Bb|-------------------------------------------------|-------------------------------------------------|
Gb|-------------------------------------------------|-------------------------------------------------|
Db|-------------------------------------------------|-5--5--5--5--5--5--5--5--5--5--5--5--5--5--5--5--|
Ab|-------------------------------------------------|-5--5--5--5--5--5--5--5--5--5--5--5--5--5--5--5--|
Eb|-0--10-12-0--10-12-0--10-12-0--10-12-0--10-12-0--|-3--3--3--3--3--3--3--3--3--3--3--3--3--3--3--3--|
PM| .  .  .  .  .  .  .  .  .  .  .  .  .  .  .  .  |                                                 |

    Guitar I                                                              |-Increasingly bend the 14-|
eb|-------------------------------------------------|-------------------------------------------------|
Bb|-------------------------------------------------|-------------------------------------------------|
Gb|-12-12-12-12-12-12-12-12-12-12-12-12-12-12-11-11-|-14-14-14-14-14-14-14-14-14-14-14-14-14-14-14-14-|
Db|-x--x--x--x--x--x--x--x--x--x--x--x--x--x--x--x--|-x--x--x--x--x--x--x--x--x--x--x--x--x--x--x--x--|
Ab|-10-10-10-10-10-10-10-10-10-10-10-10-10-10-9--9--|-12-12-12-12-12-12-12-12-12-12-12-12-12-12-12-12-|
Eb|-------------------------------------------------|-------------------------------------------------|
  |                                                 |                                                 |
  | Guitar II                                       |                                                 |
eb|-------------------------------------------------|-------------------------------------------------|
Bb|-------------------------------------------------|-------------------------------------------------|
Gb|-------------------------------------------------|-------------------------------------------------|
Db|-5--5--5--5--5--5--5--5--5--5--5--5--5--5--5--5--|-7--7--7--7--7--7--7--7--7--7--7--7--7--7--7--7--|
Ab|-5--5--5--5--5--5--5--5--5--5--5--5--5--5--5--5--|-7--7--7--7--7--7--7--7--7--7--7--7--7--7--7--7--|
Eb|-3--3--3--3--3--3--3--3--3--3--3--3--3--3--3--3--|-5--5--5--5--5--5--5--5--5--5--5--5--5--5--5--5--|
PM|                                                 |                         .  .  .  .  .           |

[Chorus 3]
    Guitar I 
eb|-0-------------------------------|---------------------------------|
Bb|-0-------------------------------|-3-------------------------------|
Gb|-x-------------------------------|-2-------------------------------|
Db|-2-------------------------------|-0-------------------------------|
Ab|-2-------------------------------|---------------------------------|
Eb|-0-------------------------------|---------------------------------|
  |                                 |                                 |
  | Guitar II                       |                                 |
eb|---------------------------------|---------------------------------|
Bb|---------------------------------|---------------------------------|
Gb|-9-------------------------------|---------------------------------|
Db|-x-------------------------------|---------------------------------|
Ab|-7-------------------------------|---------------------------------|
Eb|---------------------------------|---------------------------------|

    Guitar I 
eb|-------------------------------------------------|---------------------------------|
Bb|-------------------------------------------------|---------------------------------|
Gb|-5--5--5--5--5--5--5--5--5--5--5--5--5--5--5--5--|---------------------------------|
Db|-5--5--5--5--5--5--5--5--5--5--5--5--5--5--5--5--|-2-2-2-2-2-2-2-2-2-2-2-2-2-2-2-2-|
Ab|-3--3--3--3--3--3--3--3--3--3--3--3--3--3--3--3--|-2-2-2-2-2-2-2-2-2-2-2-2-2-2-2-2-|
Eb|-------------------------------------------------|-0-0-0-0-0-0-0-0-0-0-0-0-0-0-0-0-|
  |                                                 |                                 |
  | Guitar II                                       |                                 |
eb|-------------------------------------------------|---------------------------------|
Bb|-------------------------------------------------|---------------------------------|
Gb|-17-17-17-17-16-16-16-16-14-14-14-14-12-12-12-12-|-9-9-9-9-9-9-9-9-9-9-9-9-9-9-9-9-|
Db|-x--x--x--x--x--x--x--x--x--x--x--x--x--x--x--x--|-x-x-x-x-x-x-x-x-x-x-x-x-x-x-x-x-|
Ab|-15-15-15-15-14-14-14-14-12-12-12-12-10-10-10-10-|-7-7-7-7-7-7-7-7-7-7-7-7-7-7-7-7-|
Eb|-------------------------------------------------|---------------------------------|

    Guitar I 
eb|-------------------------------------------------|-------------------------------------------------|
Bb|-------------------------------------------------|-------------------------------------------------|
Gb|-7--7--7--7--7--7--7--7--7--7--7--7--7--7--7--7--|-5--5--5--5--5--5--5--5--5--5--5--5--5--5--5--5--|
Db|-7--7--7--7--7--7--7--7--7--7--7--7--7--7--7--7--|-5--5--5--5--5--5--5--5--5--5--5--5--5--5--5--5--|
Ab|-5--5--5--5--5--5--5--5--5--5--5--5--5--5--5--5--|-3--3--3--3--3--3--3--3--3--3--3--3--3--3--3--3--|
Eb|-------------------------------------------------|-------------------------------------------------|
  |                                                 |                                                 |
  | Guitar II                                       |                                                 |
eb|-------------------------------------------------|-------------------------------------------------|
Bb|-------------------------------------------------|-------------------------------------------------|
Gb|-11-11-11-11-11-11-11-11-7--7--7--7--7--7--7--7--|-17-17-17-17-16-16-16-16-14-14-14-14-12-12-12-12-|
Db|-x--x--x--x--x--x--x--x--x--x--x--x--x--x--x--x--|-x--x--x--x--x--x--x--x--x--x--x--x--x--x--x--x--|
Ab|-9--9--9--9--9--9--9--9--5--5--5--5--5--5--5--5--|-15-15-15-15-14-14-14-14-12-12-12-12-10-10-10-10-|
Eb|-------------------------------------------------|-------------------------------------------------|

    Guitar I  
eb||--------------------------------------------------|---------------------------------|
Bb||o-------------------------------------------------|---------------------------------|
Gb||--------------------------7--7--7--7--7--7--7--7--|---------------------------------|
Db||--5--5--5--5--5--5--5--5--7--7--7--7--7--7--7--7--|-2-2-2-2-2-2-2-2-2-2-2-2-2-2-2-2-|
Ab||o-5--5--5--5--5--5--5--5--5--5--5--5--5--5--5--5--|-2-2-2-2-2-2-2-2-2-2-2-2-2-2-2-2-|
Eb||--3--3--3--3--3--3--3--3--------------------------|-0-0-0-0-0-0-0-0-0-0-0-0-0-0-0-0-|
  ||                                                  |                                 |
  ||Guitar II                                         |                                 |
eb||--------------------------------------------------|---------------------------------|
Bb||o-------------------------------------------------|---------------------------------|
Gb||--16-16-16-16-14-14-14-14-12-12-12-12-11-11-11-11-|-9-9-9-9-9-9-9-9-9-9-9-9-9-9-9-9-|
Db||--x--x--x--x--x--x--x--x--x--x--x--x--x--x--x--x--|-x-x-x-x-x-x-x-x-x-x-x-x-x-x-x-x-|
Ab||o-14-14-14-14-12-12-12-12-10-10-10-10-9--9--9--9--|-7-7-7-7-7-7-7-7-7-7-7-7-7-7-7-7-|
Eb||--------------------------------------------------|---------------------------------|

    Guitar I 
eb|-------------------------------------------------|--------------------------------------------------||
Bb|-------------------------------------------------|-------------------------------------------------o||
Gb|-7--7--7--7--7--7--7--7--7--7--7--7--7--7--7--7--|-5--5--5--5--5--5--5--5--5--5--5--5--5--5--5--5---||
Db|-7--7--7--7--7--7--7--7--7--7--7--7--7--7--7--7--|-5--5--5--5--5--5--5--5--5--5--5--5--5--5--5--5---||
Ab|-5--5--5--5--5--5--5--5--5--5--5--5--5--5--5--5--|-3--3--3--3--3--3--3--3--3--3--3--3--3--3--3--3--o||
Eb|-------------------------------------------------|--------------------------------------------------||
  |                                                 |                                                  ||  x2
  | Guitar II                                       |                                                  ||
eb|-------------------------------------------------|--------------------------------------------------||
Bb|-------------------------------------------------|-------------------------------------------------o||
Gb|-11-11-11-11-11-11-11-11-7--7--7--7--7--7--7--7--|-17-17-17-17-16-16-16-16-14-14-14-14-12-12-12-12--||
Db|-x--x--x--x--x--x--x--x--x--x--x--x--x--x--x--x--|-x--x--x--x--x--x--x--x--x--x--x--x--x--x--x--x---||
Ab|-9--9--9--9--9--9--9--9--5--5--5--5--5--5--5--5--|-15-15-15-15-14-14-14-14-12-12-12-12-10-10-10-10-o||
Eb|-------------------------------------------------|--------------------------------------------------||

    Guitar I 
eb|---------------------------------|---------------------------------|
Bb|---------------------------------|---------------------------------|
Gb|-----------------7---------------|---------------------------------|
Db|-5---------------7---------------|-2-------------------------------|
Ab|-5---------------5---------------|-2-------------------------------|
Eb|-3-------------------------------|-0-------------------------------|
  |                                 |                                 |
  | Guitar II                       |                                 |
eb|---------------------------------|---------------------------------|
Bb|---------------------------------|---------------------------------|
Gb|-16--------------14--------------|-9-------------------------------|
Db|-x---------------x---------------|-x-------------------------------|
Ab|-14--------------12--------------|-7-------------------------------|
Eb|---------------------------------|---------------------------------|

*******************

| x   Dead note
| PM  Palm mute

*******************

            
            
Suggest correction
Creating personal tab
Creating personal tab
You can edit any tab online and save it as your Personal.

You can edit, replace or remove any tab part or add personal notes – all changes will be seen only by you.

Personal tabs can be accessed anytime from any device, even offline.
Learn more »
Give kudos to tab author, rate the tab!
1 2 3 4 5
comments
print report bad tab
guest
You may want to rate the tab now too:
select rating
Wanna post a correction for this tab? Suggest correction