Oops, an error
Loading. Please wait.

Worth Dying For bass

version 2
version 2

Whole song

Interactive

8,737 views 9 this week
2 commentsread comments
1 2 3 4 5
x 7
add to favorites
×
Save as Personal and add changes to this tab that will be seen only by you. Learn more ›
×
You can save this tab as Personal to edit and correct it or add notes. All changes will be seen only by you. Learn more »
launch autoscroll
font size
0
reset
guitar tuner
backing track
0:00
0:00
edit
Autoscroll
slow
fast
+/-
esc
set tempo
stop
Author
Difficulty
WORTH DYING FOR - Rise Against: The Sufferer and the Witness

This song is awesome. Probably one of the best RA songs out there. This is an easy song
sing to while your playing so I put in the lyrics at their appropriate areas. The only
part to sing and play is the Bridge but just work on it.

I have made sure this is 100% correct. Played and listened to it through my iPod on my
in my stereo headphones. One side played Rise Against and the other side my bass - just
make sure it was synchronized. It is 100% correct. Have fun.


G:-----------------------------------------------------------------|
D:-----------------------------------------------------------------|
A:-X-X-X-X--4----------------2-------4---------------2-XX----------|         Intro
E:---------------5-----0~ ------------------5-----0~ --------------|

Set me off like dynamite strapped tight around my waist
We are the ones in competition but claim this ain't no race
                         (Let's Go!)

G:---------------------------------------------------------|
D:-(FAST)--------------------------------------------------|
A:-44444444444444--------------7777777777777---------------|
E:---------------55555555555555-------------77777777777777-|

Take a breath and explode like bullets tearing through the wind   Verse #1

G:---------------------------------------------------------|
D:---------------------------------------------------------|
A:44444444444444--------------777777-9-7-6h7---------------|
E:--------------55555555555555--------------77777777777777-|

Cut me up with a razor blade that tries to separate the skin.
Now in the-

G:---------------------------------------------------------|
D:---------------------------------------------------------|
A:--(EXTREMELY FAST)---------------------------------------|
E:-555555555555-222222222222-555555555555-777777777777-----|

white flames of burning flags,
we found a world worth dying for, yeah                          Pre-Chorus

G:---------------------------------------------------------|
D:---------------------------------------------------------|
A:---------------------------------------------------------|
E:-555555555555-222222222222-555555555555-7-7-7-7-7-7-7-7--|

We've been battered so hard that We don't feel anymore

G:-------------------------------------------------------------------|
D:-------------------------------------------------------------------|     X2
A:4-4-4-4-4-4-4-4-------------------------------2-2-2-2-2-2-2-2------|
E----------------5-5-5-5-5-5-5-5-0-0-0-0-0-0-0-0---------------------|

Take me - from this world save me - what if we all die young?    Chorus

G:---------------------------------------------------------|
D:---------------------------------------------------------|
A:444444444444-------------------------222222222222--------|         X2
E:------------555555555555-000000000000--------------------|

So take me - from this world save me - what if we all die young?

G:---------------------------------------------------------|
D:---------------------------------------------------------|      Interlude
A:-4X-4444-44--4X-4444-44--4X-4444-44-4X---(GUITAR PART)---|
E:------------------------------------------0-4567---------|

G:---------------------------------------------------------|
D:--(FAST)-------------------------------------------------|
A:44444444444444--------------77777777777777---------------|
E:--------------55555555555555--------------77777777777777-|

Send me off on the morning breeze so far away from here,

G:---------------------------------------------------------|
D:-------------------------------------------5~ -----------|
A:44444444444444--------------777777-9-7-6h7---------------|
E:--------------55555555555555-----------------------------|

feel me rise in the strength I've found inside the warm
embracing air. I'm moving -                                     Verse #2

G:---------------------------------------------------------|
D:---------------------------------------------------------|
A:44444444444444--------------77777777777777---------------|
E:--------------55555555555555--------------77777777777777-|

Slow. Like a glacier melting watch me dissipate

G:----------------------------------------------------------|
D:----------------------------------------------------------|
A:44444444444444--------------777777-9-7-6h7----------------|
E:--------------55555555555555--------------777777777777777-|

I've searched for love in an empty world but
all I found was hate. Now in the-

G:---------------------------------------------------------|
D:---------------------------------------------------------|
A:---------------------------------------------------------|
E:555555555555-222222222222-555555555555-777777777777------|

White flames of burning flags we
found a world worth dying for, yeah                              Pre Chorus

G:---------------------------------------------------------|
D:---------------------------------------------------------|
A:---------------------------------------------------------|
E:555555555555-222222222222-555555555555-7-7-7-7-7-7-7-7---|

We've been battered so hard that we don't feel anymore.

G:------------------------------------------------------------------|
D:------------------------------------------------------------------|
A:4-4-4-4-4-4-4-4-------------------------------2-2-2-2-2-2-2-2-----|    X2
E:---------------5-5-5-5-5-5-5-5-0-0-0-0-0-0-0-0--------------------|

Take me - from this world save me - what if we all die young?
                                                                 Chorus
G:-------------------------------------------------------------|
D:-------------------------------------------------------------|
A:444444444444--------------------------222222222222-----------|     X2
E:------------555555555555-000000000000------------------------|

So take me - from this world save me - what if we all die young?

G:---------------------------------------------------------|
D:--6---4---7---6---4------2---1---4---2---1---------------|         X6
A:4---4---4---4---4------0---0---2---2---2-----------------|
E:---------------------------------------------------------|

Don't ask me why 'cuz I don't know. Don't ask me how
I'm gonna solve this on my own. Don't ask me why                 Bridge
'cuz I don't know these things I'll never face

G:---------------------------------------------------------|
D:----------(END BRIDGE)-----------------------------------|
A:---------------------------------------------------------|         X1
E:----------777777777777-----------------------------------|

Scratch out but won't erase.

G:---------------------------------------------------------|
D:---------------------------------------------------------|
A:---------------------------------------------------------|
E:555555555555-222222222222-555555555555-777777777777------|

In the wreckage of a job well done I saw a place I'd never seen
before, yeah.
                                                                 Pre-Chorus
G:----------------------------------------------------------|
D:----------------------------------------------------------|
A:-------------------------------------------------------2--|
E:555555555555-222222222222-5X-----------7-7-7-7-7-7-7-7----|

In that moment I refused to close my eyes anymore.

G:-------------------------------------------------------------------|
D:-------------------------------------------------------------------|
A:4-4-4-4-4-4-4-4-------------------------------2-2-2-2-2-2-2-2------|     X2
E:---------------5-5-5-5-5-5-5-5-0-0-0-0-0-0-0-0---------------------|

So take me - from this world save me - what if we all die young?
                                                                 Chorus
G:---------------------------------------------------------|
D:---------------------------------------------------------|
A:444444444444-------------------------222222222222--------|         X2
E:------------555555555555-000000000000--------------------|

So take me - from this world save me - what if we all die young?

G:---------------------------------------------------------|
D:---------------------------------------------------------|
A:444444444444-------------------------222222222222--------|
E:------------555555555555-000000000000--------------------|

   So take me .......                                            Outro

G:---------------------------------------------------------|
D:---------------------------------------------------------|
A:444444444444--------------------------------2-4~ --------|
E:------------555555555555-000000000000-0-2-5--------------|

   So take me .......

            
            
Suggest correction
Creating personal tab
Creating personal tab
You can edit any tab online and save it as your Personal.

You can edit, replace or remove any tab part or add personal notes – all changes will be seen only by you.

Personal tabs can be accessed anytime from any device, even offline.
Learn more »
comments
print report bad tab
2 comments total.
0 reply
chrisjenks 2,712 Jul 17, 2008 02:33 PM

tab sounds close to spot on.
i reckon your bridge part sounds better than the other version too.
good job

0 reply
thunderhawk 535 Mar 04, 2009 02:52 PM

hells ya this look GREAT!

guest
You may want to rate the tab now too:
select rating
Wanna post a correction for this tab? Suggest correction