Oops, an error
Loading. Please wait.

Worth Dying For tab

version 1
version 1

Whole song

Interactive

4,872 views 6 this week
13 commentsread comments
1 2 3 4 5
x 13
add to favorites
×
Save as Personal and add changes to this tab that will be seen only by you. Learn more ›
×
You can save this tab as Personal to edit and correct it or add notes. All changes will be seen only by you. Learn more »
launch autoscroll
font size
0
reset
how to read this tab
guitar tuner
backing track
0:00
0:00
edit
Autoscroll
slow
fast
+/-
esc
set tempo
stop
Rise Against
Worth Dying For
The Sufferer & The Witness

Tabbed by: Andy
Email: ajman1212@yahoo.com

I am 95 % correct on this tab. Please rate and comment on this song.

Intro (:00-:08)                    2x
|------------------------------------|----------------------------|
|------------------------------------|----------------------------|
|---9---6--------7-------------------|----------------------------|
|---9---6---7~---7 ------------------|---/ / / / / / / / / / /----|
|---7---4---7~---5 ------------------|---/ / / / / / / / / / /----|
|-----------5~-----------------------|---/ / / / / / / / / / /----|
                                                ^ ^ ^ Pickslide

Verse (:10-:20)                                 2x
|-------------------------------------------------|
|-------------------------------------------------|
|---8888888888------------6666666666-4444444444---|
|---8888888888-6666666666-6666666666-4444444444---|
|---6666666666-6666666666-4444444444-2222222222---|
|--------------4444444444-------------------------|


Pre Chorus (:21-:31)
|-----------------------------------------------|-----------------|
|-----------------------------------------------|-----------------|
|------------------------------------4444444444-|---4-4444444444--|
|---8888888888-5555555555-7777777777-4444444444-|---4-4444444444--|
|---8888888888-5555555555-7777777777-2222222222-|---2-2222222222--|
|---6666666666-3333333333-5555555555------------|-----------------|
                                                      ..........
                                                    ^ play 2nd time through
Chorus (:32-:53)                                2x
|-------------------------------------------------|
|-------------------------------------------------|
|---6666666666------------4444444444-3333333333---|
|---xxxxxxxxxx-4444444444-xxxxxxxxxx-xxxxxxxxxx---|
|---4444444444-xxxxxxxxxx-2222222222-1111111111---|
|--------------2222222222-------------------------|

Interlude (:54-:57)                        (:57-:59)
|------------------------------------------|-----------------|
|------------------------------------------|-----------------|
|---9-999-9-9-9--9-999-9-9-9--9-999-9-9-9--|-----------------|
|---9-999-9-9-9--9-999-9-9-9--9-999-9-9-9--|---5--7-6-9-10---|
|---7-777-7-7-7--7-777-7-7-7--7-777-7-7-7--|---x--x-x-x-x----|
|------------------------------------------|---3--5-4-7-8----|
      ...          ...          ...

Verse (1:00–1:21)                               4x
|-------------------------------------------------|
|-------------------------------------------------|
|---8888888888------------6666666666-4444444444---|
|---8888888888-6666666666-6666666666-4444444444---|
|---6666666666-6666666666-4444444444-2222222222---|
|--------------4444444444-------------------------|


Pre Chorus (1:21–1:32)
|-----------------------------------------------|------------------|
|------------ ----------------------------------|------------------|
|------------------------------------4444444444-|---4-4444444444---|
|---8888888888-5555555555-7777777777-4444444444-|---4-4444444444---|
|---8888888888-5555555555-7777777777-2222222222-|---2-2222222222---|
|---6666666666-3333333333-5555555555------------|------------------|
                                                      ..........
                                                     ^ ^ ^ 2nd time through play this
Chorus (1:33–1:54)                              4x (1:59–2:04)
|-------------------------------------------------|-------------------|
|-------------------------------------------------|-------------------|
|---6666666666------------4444444444-3333333333---|---12-10~--10-12~--|
|---xxxxxxxxxx-4444444444-xxxxxxxxxx-xxxxxxxxxx---|-------------------|
|---4444444444-xxxxxxxxxx-2222222222-1111111111---|-------------------|
|--------------2222222222-------------------------|-------------------|


Interlude (2:05–2:24)    6x or 7x
|------------------------------------|
|------------------------------------|     <
|--99-9--9-99-9--9-99----------------|     <
|--99-9--9-99-9--9-99----------------|       Not sure if this is right. Figure out
|--77-7--7-77-7--7-77----------------|     < rhythm yourself.
|------------------------------------|     <
   **      **      **


Bridge (2:25–2:33)                               (2:34–2:37)
|------------------------------------------------|------------------------|
|------------------------------------------------|------------------------|
|---9999999999------------6666666666-4444444444--|---6--4444444-4444444---|
|---xxxxxxxxxx-9999999999-xxxxxxxxxx-xxxxxxxxxx--|---x--4444444-xxxxxxx---|
|---7777777777-xxxxxxxxxx-4444444444-2222222222--|---4--2222222-2222222---|
|--------------7777777777------------------------|------------------------|
                                                        .......
                                                    ^ ^ Play 2nd time through
Outro (2:38–3:20)                                                           |--|
|------------------------------------------------------------------------------|
|---6666666666------------4444444444-3333333333--------------------------------|
|---xxxxxxxxxx-4444444444-xxxxxxxxxx-xxxxxxxxxx--------------------------------|
|---4444444444-xxxxxxxxxx-2222222222-1111111111--------------------------------|
|---------- ---2222222222------------------------------------------------------|


            
            
Suggest correction
Creating personal tab
Creating personal tab
You can edit any tab online and save it as your Personal.

You can edit, replace or remove any tab part or add personal notes – all changes will be seen only by you.

Personal tabs can be accessed anytime from any device, even offline.
Learn more »
comments
print report bad tab
13 comments total. Showing first comments.
0 reply
FBpunkRock 82 Jul 14, 2006 06:51 AM

nice tab. dude you know every song has been tabbed out for Sufferer & The Witness, i just checked. i did a few of them myself.

0 reply
Suspended Chaos 10 Jul 17, 2006 11:17 PM

what's your point? every song of AC/DC has been tabbed out but that doesn't stop people making 4735972345 different (or the same) versions of each song.

+1 reply
Nairb 10 Aug 14, 2006 02:38 AM

Just because every song has been tabbed doesn't mean they're all correct... Somewhat like this one. How can you say your tab is 95% complete if you've only tabbed out one guitar?

guest
You may want to rate the tab now too:
select rating
Wanna post a correction for this tab? Suggest correction