Oops, an error
Loading. Please wait.

Worth Dying For tab

version 3
version 3

Whole song

Interactive

7,821 views 3 this week
2 commentsread comments
1 2 3 4 5
x 6
add to favorites
×
Save as Personal and add changes to this tab that will be seen only by you. Learn more ›
×
You can save this tab as Personal to edit and correct it or add notes. All changes will be seen only by you. Learn more »
launch autoscroll
font size
0
reset
how to read this tab
guitar tuner
backing track
0:00
0:00
edit
Autoscroll
slow
fast
+/-
esc
set tempo
stop
Author
Worth Dying For
Rise Against

I got tired of all the incorrect tabs I was seeing so I decided to fix it.  This 
is almost 100% correct

intro                     x2
|--------------------------|-------------------|
|--------------------------|-------------------|
|---6------------4---------|-------------------|
|---6---7---2~---4---------|--//////////////---|
|---4---7---2~---2---------|--//////////////---|
|-------5---0~-------------|--//////////////---|
                               ^ Pickslide

verse                                        x2
|----------------------------------------------|
|----------------------------------------------|
|-6666666666-----------------------44444444444-|
|-6666666666-7777777777-2222222222-44444444444-|
|-4444444444-7777777777-2222222222-22222222222-|
|------------5555555555-0000000000-------------|

pre chorus                                   x2
|----------------------------------------------|
|----------------------------------------------|
|----------------------------------4444444444--|
|----------------------------------4444444444--|
|-7777777777-4444444444-7777777777-2222222222--|
|-5555555555-2222222222-5555555555-------------|
                                     ^^^^^2nd time take slight pauses before struming 
note and palm mute

chorus                                   x4
|-----------------------------------------|
|-----------------------------------------|
|-----------------------------------------|
|-666666666-------------------------------|
|-444444444-777777777-222222222-999999999-|
|-----------555555555-000000000-777777777-|

interlude
|--------------------------------------------------------------|
|--------------------------------------------------------------|
|--11-111111-11-11-11--11-111111-11-11-11--11-111111-11-11-11--|
|--11-111111-11-11-11--11-111111-11-11-11--11-111111-11-11-11--|
|---9- 9 9 9 -9- 9- 9-- 9- 9 9 9- 9- 9- 9-- 9- 9 9 9- 9- 9- 9--|
|--------------------------------------------------------------|

|--------------|
|--------------|
|--------------|
|5--7-6-9-10---|
|x--x-x-x-x----|
|3--5-4-7-8----|



verse                                         x2
|----------------------------------------------|
|----------------------------------------------|
|-6666666666-----------------------44444444444-|
|-6666666666-7777777777-2222222222-44444444444-|
|-4444444444-7777777777-2222222222-22222222222-|
|------------5555555555-0000000000-------------|

                                                 x2
|-------------------------------------------------|
|-------------------------------------------------|
|-------------------------------------6666666666--|
|------------9999999999-999999999/11-\6666666666--|
|-7777777777-7777777777-777777777/9 -\8888888888--|
|-5555555555--------------------------------------|
                                        
pre chorus                                    x2
|----------------------------------------------|
|----------------------------------------------|
|----------------------------------4444444444--|
|----------------------------------4444444444--|
|-7777777777-4444444444-7777777777-2222222222--|
|-5555555555-2222222222-5555555555-------------|
                                     ^^^^^2nd time take slight pauses before struming 
note and palm mute

chorus                                   x4
|-----------------------------------------|---------------|
|-----------------------------------------|---9-----------|
|-----------------------------------------|-----9~--8-9~--|
|-666666666-------------------------------|---------------|
|-444444444-777777777-222222222-999999999-|---------------|
|-----------555555555-000000000-777777777-|---------------|

interlude
|--------------------------------
|--------------------------------
|--12--x-12--x-12--11--x-11--x-12
|--x --x-x --x-x –-x --x-x --x-x 
|--10--x-10--x-10—-9 --x-9 --x-10
|--------------------------------
cont.                           x4
---------------------------------|
---------------------------------|
---16--x-16--x-16--14-x—14--x-14-|
---x --x-x --x-x --x -x-x --x-x -|
---14--x-14--x-14--12-x-12--x-12-|
---------------------------------|




bridge                                          x2
|------------------------------------------------|
|------------------------------------------------|
|---9999999999------------6666666666-4444444444--|
|---xxxxxxxxxx-9999999999-xxxxxxxxxx-xxxxxxxxxx--|
|---7777777777-xxxxxxxxxx-4444444444-2222222222--|
|--------------7777777777------------------------|
cont.
|------------------------|
|------------------------|
|---6--4444444-4444444---|
|---x--4444444-xxxxxxx---|
|---4--2222222-2222222---|
|------------------------|

outro                                    x4
|-----------------------------------------|
|-----------------------------------------|
|-----------------------------------------|
|-666666666-------------------------------|
|-444444444-777777777-222222222-999999999-|
|-----------555555555-000000000-777777777-|


            
            
Suggest correction
Creating personal tab
Creating personal tab
You can edit any tab online and save it as your Personal.

You can edit, replace or remove any tab part or add personal notes – all changes will be seen only by you.

Personal tabs can be accessed anytime from any device, even offline.
Learn more »
comments
print report bad tab
2 comments total.
0 reply
Gretsky 51 Jun 29, 2009 05:55 PM

by the way i tabed this to sound better on one guitar rather than splitting it into two parts

0 reply
BenignViewer 114 Mar 15, 2012 04:26 PM

Well, apart from it lacking the two guitar split this pretty damn good. Got my 5.
Thanks for sharing.

guest
You may want to rate the tab now too:
select rating
Wanna post a correction for this tab? Suggest correction