Oops, an error
Loading. Please wait.

Rivermouth Acoustic chords

2,950 views 27 this week
1 commentread comment
1 2 3 4 5
x 4
add to favorites
×
Save as Personal and add changes to this tab that will be seen only by you. Learn more ›
×
You can save this tab as Personal to edit and correct it or add notes. All changes will be seen only by you. Learn more »
launch autoscroll
font size
0
reset
transpose
0
reset
simplify chords
display chords
guitar tuner
edit
Autoscroll
slow
fast
+/-
esc
set tempo
stop
Author
Difficulty
Strumming
There is no strumming pattern for this song yet. and get +5 IQ
WTJU Performance = https://www.youtube.com/watch?v=yddWDDdexXI


[Intro]

e|--------0-----------------0-----|
B|---0----0---0-----0---0---0-----|
G|-----1--1-----1h2-------1-1-----|
D|--------2-----------------2-----|
A|--------2-----------------2-----|
E|-0------0-----------0-----0-----| 

e|--------------------------------|
B|--------------------------------|
G|--------------------------------|
D|-4-4-4-4\0-(0)------------------|
A|--------------------------------|
E|----------------7-7-7-7\3-(3)---|

e|--------0-----------------0-----|
B|---0----0---0-----0---0---0-----|
G|-----1--1-----1h2-------1-1-----|
D|--------2-----------------2-----|
A|--------2-----------------2-----|
E|-0------0-----------0-----0-----| 


[Chorus] 

E
We are rollin' on the river,
E
We are rollin' out to the sea,
     A7      E    
Just me and my baby
B (021202)     E
Yeaaaah,      yeah, yeah, yeah


[Verse]

E
There is sugar in your voice dear
E
Black pepper in your touch
     A7         E
And I have always loved too much
B         E
Yeaaah, yeah, yeah, yeah


[Verse]

E
Cause you come and go like the wind blows
E
And you roll out with the tide
    A7        E
But that's alright
E
Baby that's alright
B         E
Yeaaah, yeah, yeah, yeah


[Solo] 

E E A7 E B E


[Verse]

E
Now the days are flyin'
E
And we are on the right,
  A7                     E
Eyes forward all the time,
E
Our blood full of thunder and wine


[Chorus]

E
We are rollin' on the river,
E
We are rollin' out to the sea, 
   A7            E
Just me and my baby
B         E
Yeaaaah, yeah, yeah, yeah


End on E


************************************

| (n) Ghost note
| h   Hammer-on
| \   Slide down

************************************

            
            
Suggest correction
Creating personal tab
Creating personal tab
You can edit any tab online and save it as your Personal.

You can edit, replace or remove any tab part or add personal notes – all changes will be seen only by you.

Personal tabs can be accessed anytime from any device, even offline.
Learn more »
comments
print report bad tab
1 comment total.
0 reply
Bones13 10 May 26, 2016 07:05 PM

I think the second part is

e------------------------------------------------
b------------------------------------------------
g---2-2-2-2-2-2p0------4-4-4-4-4-4p0-------------
d---0-0-0-0-0-0--------0-0-0-0-0-0---------------
a------------------------------------------------
e---2-2-2-2-2-2--------2-2-2-2-2-2---------------

That might just be the studio version though, I didn't listen to the live version. Great tab though! =)

guest
You may want to rate the tab now too:
select rating
Wanna post a correction for this tab? Suggest correction