Oops, an error
Loading. Please wait.

Travel By Telephone tab

367 views 6 this week
no commentswrite comment
1 2 3 4 5
3 more votes to show rating
add to favorites
×
Save as Personal and add changes to this tab that will be seen only by you. Learn more ›
×
You can save this tab as Personal to edit and correct it or add notes. All changes will be seen only by you. Learn more »
launch autoscroll
font size
0
reset
how to read this tab
guitar tuner
edit
Autoscroll
slow
fast
+/-
esc
set tempo
stop
Author
performed by Rival Schools

Standard Tuning

Gtr 1 Chords

E    022100
F#*  244300
C#*  x46600
A*   577600
G#   4665xx
A5   566xxx


[Intro]

       Must have been a

e|-------------------|
B|--4-4-4-4-4-4-4-4--|
G|--5-5-5-5-5-5-5-5--|
D|--4-4-4-4-4-4-4-4--|
A|-------------------|
E|-------------------|


[Verse]

mistake, While you make things hard for me, Wouldnt hurt you at all if I didnt have to Give in it



  Bar 4th fret
    F#*        C#*              A*        F#*          C#*                A*      
e|-------------------------------------------7----7----7----7----7----7----7------7------|
B|--5----5----5----5----5----5----5----5-------5----5----5----5----5----5----5------5----|
G|----4----4----4----4----4----4----4----4-------6----6----6----6----6----6----6------6--|
D|------6----6----6----6----6----6----6----6---------------------------------------------|
A|---------------------------------------------------------------------------------------|
E|---------------------------------------------------------------------------------------|


our first fight Now that I see this side.I want to more than I did before This night has opened my



   F#*        C#*              A*        F#*          C#*                A*
e|--------------------------------------------7----7----7----7----7----7----7----7-------|
B|--5----4----5----7-----5----4-----5----7-----5----5----5----5----5----5----5-----5-----|
G|----4----4----4----4----4-----4-----4----5-----6----6----6----6----6----6----6-----6---|
D|------6----6----6----6----6-----6----6-----6-------------------------------------------|
A|---------------------------------------------------------------------------------------|
E|---------------------------------------------------------------------------------------|


[Chorus]

   
eyes.  I know you, hope I do now Communication down 

    E x4    x4-5    E x4  x4-5    Bar Cord   
  
e|-------|-------|------|-------|-----------|
B|-------|--4-/5-|------|--4-/5-|-----------|
G|-------|--4--4-|------|--4--4-|--6-6--5--5|
D|--1----|-------|--1---|-------|--6-6--6--6|
A|--2----|-------|--2---|-------|--4-4--6--6|
E|--2----|-------|--2---|-------|-------4--4|

  I know you,    hope    I do now    We come closer

   E x4    x4-5    E x4  x4-5    Bar Cord   
e|-------|-------|------|-------|--------------|  
B|-------|--5----|------|--5----|--------------|
G|-------|--4----|------|--4----|--6----5--5--5|
D|--1----|-------|--1---|-------|--6----6--6--6|
A|--2----|-------|--2---|-------|--4----6--6--6|
E|--2----|-------|--2---|-------|-------4--4--4|

[2nd Verse]

      Temptations, they crumble by your side You say you wouldnt hurt me at all

  Bar 4th fret
    F#*        C#*              A*        F#*          C#*                A*      
e|-------------------------------------------7----7----7----7----7----7----7-------------|
B|--5----5----5----5----5----5----5----5-------5----5----5----5----5----5----5-----------|
G|----4----4----4----4----4----4----4----4-------6----6----6----6----6----6----6---------|
D|------6----6----6----6----6----6----6----6---------------------------------------------|
A|---------------------------------------------------------------------------------------|
E|---------------------------------------------------------------------------------------|


Cant be sure that you mean it     If it worth holding on to, we cant stay in between it

   F#*        C#*              A*        F#*          C#*                A*
e|--------------------------------------------7----7----7----7----7----7----7----7-------|
B|--5----4----5----7-----5----4-----5----7-----5----5----5----5----5----5----5-----5-----|
G|----4----4----4----4----4-----4-----4----5-----6----6----6----6----6----6----6-----6---|
D|------6----6----6----6----6-----6----6-----6-------------------------------------------|
A|---------------------------------------------------------------------------------------|
E|---------------------------------------------------------------------------------------|


I know you,           Hope I do now Communication down

    E x4    x4-5    E x4  x4-5    Bar Cord   
  
e|-------|-------|------|-------|------------|
B|-------|--4-/5-|------|--4-/5-|------------|
G|-------|--4--4-|------|--4--4-|--6-6---5--5|
D|--1----|-------|--1---|-------|--6-6---6--6|
A|--2----|-------|--2---|-------|--4-4---6--6|
E|--2----|-------|--2---|-------|------- 4--4|

  I know you,    hope    I do now    We come closer

   E x4    x4-5    E x4  x4-5    Bar Cord   
e|-------|-------|------|-------|-----------------|  
B|-------|--4-/5-|------|--4-/5-|-----------------|
G|-------|--4--4-|------|--4--4-|--6-6---5--5--5--|
D|--1----|-------|--1---|-------|--6-6---6--6--6--|
A|--2----|-------|--2---|-------|--4-4---6--6--6--|
E|--2----|-------|--2---|-------|--------4--4--4--|

[Bridge]

   A5
e|------------------------------------------|
B|------------------------------------------|
G|------------------------------------------|
D|--7---7//9--9//11-11//14--14//16--16//18--|
A|------------------------------------------|
E|--5---5//7--7//9---9//12--12//14--14//16--|

[Start each with Low E, first, then high E bar cord with light strum before holding/fingering other notes) 

A comfort to us all Insured against a fall from normal life Afraid to be at it alone To shoulder I wonder 
is it safe for now

   E                   E                   E
e|---------|---------|----------|---------|---------|--------|-----------
B|---------|-------9-|----------|---------|---------|-----9--|-----------
G|---9^----|----8^---|----9-----|-----8^--|----9----|----8---|----8------
D|-----9---|---------|-------9--|---------|------9--|--------|------9----
A|---------|---------|----------|---------|---------|--------|-----------
E|---------|---------|----------|---------|---------|--------|-----------

[Solo]

    F#*   C#*   A*          F#*     C#*        A5
e|--16----------16--------------------------------------|
B|-----------14----------14-16^v14-16^v14-16^v-77777777-|
G|--------13----------13-----------------------9^^^^^^^-|
D|------------------------------------------------------|
A|------------------------------------------------------|
E|------------------------------------------------------|
 heavy vibrato

This could go either way This could work out between us, or never again

    E x4    x4-5    E x4  x4-5    Bar Cord   
  
e|-------|-------|------|-------|----------|
B|-------|--4-/5-|------|--4-/5-|----------|
G|-------|--4--4-|------|--4--4-|--6----5--|
D|--1----|-------|--1---|-------|--6----6--|
A|--2----|-------|--2---|-------|--4----6--|
E|--2----|-------|--2---|-------|-------4--|

 
Make it clean,       how realistic we mean to

    E x4    x4-5    E x4  x4-5    Bar Cord   
  
e|-------|-------|------|-------|----------|
B|-------|--4-/5-|------|--4-/5-|----------|
G|-------|--4--4-|------|--4--4-|--6----5--|
D|--1----|-------|--1---|-------|--6----6--|
A|--2----|-------|--2---|-------|--4----6--|
E|--2----|-------|--2---|-------|-------4--|


 I know you,  I know you now, I know you!

   E x4    x4-5    E x4  x4-5    Bar Cord   
e|-------|-------|------|-------|--------------|  
B|-------|--4-/5-|------|--4-/5-|--------------|
G|-------|--4--4-|------|--4--4-|--6----5--5--5|
D|--1----|-------|--1---|-------|--6----6--6--6|
A|--2----|-------|--2---|-------|--4----6--6--6|
E|--2----|-------|--2---|-------|-------4--4--4|


[Outro]

e|--16----------16--|
B|-----------14-----|
G|--------13--------| 3X
D|------------------|
A|------------------|
E|------------------|

played over Bridge riff
  A5
e|------------------------------------------|
B|------------------------------------------|
G|------------------------------------------|
D|--7---7//9--9//11-11//14--14//16--16//18--|
A|------------------------------------------|
E|--5---5//7--7//9---9//12--12//14--14//16--|

************************************

| /  Slide up
| ^  Bend
| v  Vibrato

************************************

            
            
Suggest correction
Creating personal tab
Creating personal tab
You can edit any tab online and save it as your Personal.

You can edit, replace or remove any tab part or add personal notes – all changes will be seen only by you.

Personal tabs can be accessed anytime from any device, even offline.
Learn more »
Give kudos to tab author, rate the tab!
1 2 3 4 5
comments
print report bad tab
guest
You may want to rate the tab now too:
select rating
Wanna post a correction for this tab? Suggest correction